  0
SECTION
  2
HEADER
  9
$ACADVER
  1
AC1015
  9
$ACADMAINTVER
 70
     6
  9
$DWGCODEPAGE
  3
ASCII
  9
$INSBASE
 10
0.0
 20
0.0
 30
0.0
  9
$EXTMIN
 10
1.000000000000000E+20
 20
1.000000000000000E+20
 30
1.000000000000000E+20
  9
$EXTMAX
 10
-1.000000000000000E+20
 20
-1.000000000000000E+20
 30
-1.000000000000000E+20
  9
$LIMMIN
 10
0.0
 20
0.0
  9
$LIMMAX
 10
12.0
 20
9.0
  9
$ORTHOMODE
 70
     0
  9
$REGENMODE
 70
     1
  9
$FILLMODE
 70
     1
  9
$QTEXTMODE
 70
     0
  9
$MIRRTEXT
 70
     1
  9
$LTSCALE
 40
1.0
  9
$ATTMODE
 70
     1
  9
$TEXTSIZE
 40
0.2
  9
$TRACEWID
 40
0.05
  9
$TEXTSTYLE
  7
Standard
  9
$CLAYER
  8
0
  9
$CELTYPE
  6
ByLayer
  9
$CECOLOR
 62
   256
  9
$CELTSCALE
 40
1.0
  9
$DISPSILH
 70
     0
  9
$DIMSCALE
 40
1.0
  9
$DIMASZ
 40
0.18
  9
$DIMEXO
 40
0.0625
  9
$DIMDLI
 40
0.38
  9
$DIMRND
 40
0.0
  9
$DIMDLE
 40
0.0
  9
$DIMEXE
 40
0.18
  9
$DIMTP
 40
0.0
  9
$DIMTM
 40
0.0
  9
$DIMTXT
 40
0.18
  9
$DIMCEN
 40
0.09
  9
$DIMTSZ
 40
0.0
  9
$DIMTOL
 70
     0
  9
$DIMLIM
 70
     0
  9
$DIMTIH
 70
     1
  9
$DIMTOH
 70
     1
  9
$DIMSE1
 70
     0
  9
$DIMSE2
 70
     0
  9
$DIMTAD
 70
     0
  9
$DIMZIN
 70
     0
  9
$DIMBLK
  1

  9
$DIMASO
 70
     1
  9
$DIMSHO
 70
     1
  9
$DIMPOST
  1

  9
$DIMAPOST
  1

  9
$DIMALT
 70
     0
  9
$DIMALTD
 70
     2
  9
$DIMALTF
 40
25.4
  9
$DIMLFAC
 40
1.0
  9
$DIMTOFL
 70
     0
  9
$DIMTVP
 40
0.0
  9
$DIMTIX
 70
     0
  9
$DIMSOXD
 70
     0
  9
$DIMSAH
 70
     0
  9
$DIMBLK1
  1

  9
$DIMBLK2
  1

  9
$DIMSTYLE
  2
Standard
  9
$DIMCLRD
 70
     0
  9
$DIMCLRE
 70
     0
  9
$DIMCLRT
 70
     0
  9
$DIMTFAC
 40
1.0
  9
$DIMGAP
 40
0.09
  9
$DIMJUST
 70
     0
  9
$DIMSD1
 70
     0
  9
$DIMSD2
 70
     0
  9
$DIMTOLJ
 70
     1
  9
$DIMTZIN
 70
     0
  9
$DIMALTZ
 70
     0
  9
$DIMALTTZ
 70
     0
  9
$DIMUPT
 70
     0
  9
$DIMDEC
 70
     4
  9
$DIMTDEC
 70
     4
  9
$DIMALTU
 70
     2
  9
$DIMALTTD
 70
     2
  9
$DIMTXSTY
  7
Standard
  9
$DIMAUNIT
 70
     0
  9
$DIMADEC
 70
     0
  9
$DIMALTRND
 40
0.0
  9
$DIMAZIN
 70
     0
  9
$DIMDSEP
 70
    46
  9
$DIMATFIT
 70
     3
  9
$DIMFRAC
 70
     0
  9
$DIMLDRBLK
  1

  9
$DIMLUNIT
 70
     2
  9
$DIMLWD
 70
    -2
  9
$DIMLWE
 70
    -2
  9
$DIMTMOVE
 70
     0
  9
$LUNITS
 70
     2
  9
$LUPREC
 70
     4
  9
$SKETCHINC
 40
0.1
  9
$FILLETRAD
 40
0.5
  9
$AUNITS
 70
     0
  9
$AUPREC
 70
     0
  9
$MENU
  1
.
  9
$ELEVATION
 40
0.0
  9
$PELEVATION
 40
0.0
  9
$THICKNESS
 40
0.0
  9
$LIMCHECK
 70
     0
  9
$CHAMFERA
 40
0.5
  9
$CHAMFERB
 40
0.5
  9
$CHAMFERC
 40
1.0
  9
$CHAMFERD
 40
0.0
  9
$SKPOLY
 70
     0
  9
$TDCREATE
 40
2455841.590752396
  9
$TDUCREATE
 40
2455841.507419062
  9
$TDUPDATE
 40
2455841.590752407
  9
$TDUUPDATE
 40
2455841.507419074
  9
$TDINDWG
 40
0.0000000116
  9
$TDUSRTIMER
 40
0.0000000116
  9
$USRTIMER
 70
     1
  9
$ANGBASE
 50
0.0
  9
$ANGDIR
 70
     0
  9
$PDMODE
 70
     0
  9
$PDSIZE
 40
0.0
  9
$PLINEWID
 40
0.0
  9
$SPLFRAME
 70
     0
  9
$SPLINETYPE
 70
     6
  9
$SPLINESEGS
 70
     8
  9
$HANDSEED
  5
4D7
  9
$SURFTAB1
 70
     6
  9
$SURFTAB2
 70
     6
  9
$SURFTYPE
 70
     6
  9
$SURFU
 70
     6
  9
$SURFV
 70
     6
  9
$UCSBASE
  2

  9
$UCSNAME
  2

  9
$UCSORG
 10
0.0
 20
0.0
 30
0.0
  9
$UCSXDIR
 10
1.0
 20
0.0
 30
0.0
  9
$UCSYDIR
 10
0.0
 20
1.0
 30
0.0
  9
$UCSORTHOREF
  2

  9
$UCSORTHOVIEW
 70
     0
  9
$UCSORGTOP
 10
0.0
 20
0.0
 30
0.0
  9
$UCSORGBOTTOM
 10
0.0
 20
0.0
 30
0.0
  9
$UCSORGLEFT
 10
0.0
 20
0.0
 30
0.0
  9
$UCSORGRIGHT
 10
0.0
 20
0.0
 30
0.0
  9
$UCSORGFRONT
 10
0.0
 20
0.0
 30
0.0
  9
$UCSORGBACK
 10
0.0
 20
0.0
 30
0.0
  9
$PUCSBASE
  2

  9
$PUCSNAME
  2

  9
$PUCSORG
 10
0.0
 20
0.0
 30
0.0
  9
$PUCSXDIR
 10
1.0
 20
0.0
 30
0.0
  9
$PUCSYDIR
 10
0.0
 20
1.0
 30
0.0
  9
$PUCSORTHOREF
  2

  9
$PUCSORTHOVIEW
 70
     0
  9
$PUCSORGTOP
 10
0.0
 20
0.0
 30
0.0
  9
$PUCSORGBOTTOM
 10
0.0
 20
0.0
 30
0.0
  9
$PUCSORGLEFT
 10
0.0
 20
0.0
 30
0.0
  9
$PUCSORGRIGHT
 10
0.0
 20
0.0
 30
0.0
  9
$PUCSORGFRONT
 10
0.0
 20
0.0
 30
0.0
  9
$PUCSORGBACK
 10
0.0
 20
0.0
 30
0.0
  9
$USERI1
 70
     0
  9
$USERI2
 70
     0
  9
$USERI3
 70
     0
  9
$USERI4
 70
     0
  9
$USERI5
 70
     0
  9
$USERR1
 40
0.0
  9
$USERR2
 40
0.0
  9
$USERR3
 40
0.0
  9
$USERR4
 40
0.0
  9
$USERR5
 40
0.0
  9
$WORLDVIEW
 70
     1
  9
$SHADEDGE
 70
     3
  9
$SHADEDIF
 70
    70
  9
$TILEMODE
 70
     1
  9
$MAXACTVP
 70
    64
  9
$PINSBASE
 10
0.0
 20
0.0
 30
0.0
  9
$PLIMCHECK
 70
     0
  9
$PEXTMIN
 10
1.000000000000000E+20
 20
1.000000000000000E+20
 30
1.000000000000000E+20
  9
$PEXTMAX
 10
-1.000000000000000E+20
 20
-1.000000000000000E+20
 30
-1.000000000000000E+20
  9
$PLIMMIN
 10
0.0
 20
0.0
  9
$PLIMMAX
 10
12.0
 20
9.0
  9
$UNITMODE
 70
     0
  9
$VISRETAIN
 70
     1
  9
$PLINEGEN
 70
     0
  9
$PSLTSCALE
 70
     1
  9
$TREEDEPTH
 70
  3020
  9
$CMLSTYLE
  2
Standard
  9
$CMLJUST
 70
     0
  9
$CMLSCALE
 40
1.0
  9
$PROXYGRAPHICS
 70
     1
  9
$MEASUREMENT
 70
     0
  9
$CELWEIGHT
370
    -1
  9
$ENDCAPS
280
     0
  9
$JOINSTYLE
280
     0
  9
$LWDISPLAY
290
     1
  9
$INSUNITS
 70
     1
  9
$HYPERLINKBASE
  1

  9
$STYLESHEET
  1

  9
$XEDIT
290
     1
  9
$CEPSNTYPE
380
     0
  9
$PSTYLEMODE
290
     1
  9
$FINGERPRINTGUID
  2
{243AF359-5658-4B3C-BAE2-C535345081C3}
  9
$VERSIONGUID
  2
{FAEB1C32-E019-11D5-929B-00C0DF256EC4}
  9
$EXTNAMES
290
     1
  9
$PSVPSCALE
 40
0.0
  9
$OLESTARTUP
290
     0
  0
ENDSEC
  0
SECTION
  2
CLASSES
  0
CLASS
  1
ACDBDICTIONARYWDFLT
  2
AcDbDictionaryWithDefault
  3
ObjectDBX Classes
 90
        0
280
     0
281
     0
  0
CLASS
  1
VISUALSTYLE
  2
AcDbVisualStyle
  3
ObjectDBX Classes
 90
     4095
280
     0
281
     0
  0
CLASS
  1
ACDBPLACEHOLDER
  2
AcDbPlaceHolder
  3
ObjectDBX Classes
 90
        0
280
     0
281
     0
  0
CLASS
  1
LAYOUT
  2
AcDbLayout
  3
ObjectDBX Classes
 90
        0
280
     0
281
     0
  0
ENDSEC
  0
SECTION
  2
TABLES
  0
TABLE
  2
VPORT
  5
8
330
0
100
AcDbSymbolTable
 70
     1
  0
VPORT
  5
29
330
8
100
AcDbSymbolTableRecord
100
AcDbViewportTableRecord
  2
*Active
 70
     0
 10
0.0
 20
0.0
 11
1.0
 21
1.0
 12
0.0
 22
0.0
 13
0.0
 23
0.0
 14
0.5
 24
0.5
 15
0.5
 25
0.5
 16
0.0
 26
0.0
 36
1.0
 17
100.0918893286081
 27
127.3140182826939
 37
0.0
 40
210.0002402087522
 41
1.414285655695684
 42
50.0
 43
0.0
 44
0.0
 50
0.0
 51
0.0
 71
     0
 72
   100
 73
     1
 74
     3
 75
     0
 76
     0
 77
     0
 78
     0
281
     0
 65
     1
110
0.0
120
0.0
130
0.0
111
1.0
121
0.0
131
0.0
112
0.0
122
1.0
132
0.0
 79
     0
146
0.0
  0
ENDTAB
  0
TABLE
  2
LTYPE
  5
5
330
0
100
AcDbSymbolTable
 70
    14
  0
LTYPE
  5
14
330
5
100
AcDbSymbolTableRecord
100
AcDbLinetypeTableRecord
  2
ByBlock
 70
     0
  3

 72
    65
 73
     0
 40
0.0
  0
LTYPE
  5
15
330
5
100
AcDbSymbolTableRecord
100
AcDbLinetypeTableRecord
  2
ByLayer
 70
     0
  3

 72
    65
 73
     0
 40
0.0
  0
LTYPE
  5
16
330
5
100
AcDbSymbolTableRecord
100
AcDbLinetypeTableRecord
  2
Continuous
 70
     0
  3
Solid line
 72
    65
 73
     0
 40
0.0
  0
LTYPE
  5
499
330
5
100
AcDbSymbolTableRecord
100
AcDbLinetypeTableRecord
  2
AI-Linetype-1
 70
     0
  3
Adobe Illustrator Linetype No. 1
 72
    65
 73
     4
 40
3.697113724098473
 49
2.848329782592629
 74
     0
 49
-0.2829279805019478
 74
     0
 49
0.2829279805019478
 74
     0
 49
-0.2829279805019478
 74
     0
  0
LTYPE
  5
49E
330
5
100
AcDbSymbolTableRecord
100
AcDbLinetypeTableRecord
  2
AI-Linetype-2
 70
     0
  3
Adobe Illustrator Linetype No. 2
 72
    65
 73
     4
 40
3.697113724098473
 49
2.848329782592629
 74
     0
 49
-0.2829279805019478
 74
     0
 49
0.2829279805019478
 74
     0
 49
-0.2829279805019478
 74
     0
  0
LTYPE
  5
4A3
330
5
100
AcDbSymbolTableRecord
100
AcDbLinetypeTableRecord
  2
AI-Linetype-3
 70
     0
  3
Adobe Illustrator Linetype No. 3
 72
    65
 73
     4
 40
3.697113724098473
 49
2.848329782592629
 74
     0
 49
-0.2829279805019478
 74
     0
 49
0.2829279805019478
 74
     0
 49
-0.2829279805019478
 74
     0
  0
LTYPE
  5
4A8
330
5
100
AcDbSymbolTableRecord
100
AcDbLinetypeTableRecord
  2
AI-Linetype-4
 70
     0
  3
Adobe Illustrator Linetype No. 4
 72
    65
 73
     4
 40
3.697113724098473
 49
2.848329782592629
 74
     0
 49
-0.2829279805019478
 74
     0
 49
0.2829279805019478
 74
     0
 49
-0.2829279805019478
 74
     0
  0
LTYPE
  5
4AD
330
5
100
AcDbSymbolTableRecord
100
AcDbLinetypeTableRecord
  2
AI-Linetype-5
 70
     0
  3
Adobe Illustrator Linetype No. 5
 72
    65
 73
     4
 40
3.697113724098473
 49
2.848329782592629
 74
     0
 49
-0.2829279805019478
 74
     0
 49
0.2829279805019478
 74
     0
 49
-0.2829279805019478
 74
     0
  0
LTYPE
  5
4B2
330
5
100
AcDbSymbolTableRecord
100
AcDbLinetypeTableRecord
  2
AI-Linetype-6
 70
     0
  3
Adobe Illustrator Linetype No. 6
 72
    65
 73
     4
 40
3.697113724098473
 49
2.848329782592629
 74
     0
 49
-0.2829279805019478
 74
     0
 49
0.2829279805019478
 74
     0
 49
-0.2829279805019478
 74
     0
  0
LTYPE
  5
4B7
330
5
100
AcDbSymbolTableRecord
100
AcDbLinetypeTableRecord
  2
AI-Linetype-7
 70
     0
  3
Adobe Illustrator Linetype No. 7
 72
    65
 73
     4
 40
3.697113724098473
 49
2.848329782592629
 74
     0
 49
-0.2829279805019478
 74
     0
 49
0.2829279805019478
 74
     0
 49
-0.2829279805019478
 74
     0
  0
LTYPE
  5
4BC
330
5
100
AcDbSymbolTableRecord
100
AcDbLinetypeTableRecord
  2
AI-Linetype-8
 70
     0
  3
Adobe Illustrator Linetype No. 8
 72
    65
 73
     4
 40
3.697113724098473
 49
2.848329782592629
 74
     0
 49
-0.2829279805019478
 74
     0
 49
0.2829279805019478
 74
     0
 49
-0.2829279805019478
 74
     0
  0
LTYPE
  5
4C1
330
5
100
AcDbSymbolTableRecord
100
AcDbLinetypeTableRecord
  2
AI-Linetype-9
 70
     0
  3
Adobe Illustrator Linetype No. 9
 72
    65
 73
     4
 40
3.697113724098473
 49
2.848329782592629
 74
     0
 49
-0.2829279805019478
 74
     0
 49
0.2829279805019478
 74
     0
 49
-0.2829279805019478
 74
     0
  0
LTYPE
  5
4C6
330
5
100
AcDbSymbolTableRecord
100
AcDbLinetypeTableRecord
  2
AI-Linetype-10
 70
     0
  3
Adobe Illustrator Linetype No. 10
 72
    65
 73
     4
 40
3.697113724098473
 49
2.848329782592629
 74
     0
 49
-0.2829279805019478
 74
     0
 49
0.2829279805019478
 74
     0
 49
-0.2829279805019478
 74
     0
  0
LTYPE
  5
4CB
330
5
100
AcDbSymbolTableRecord
100
AcDbLinetypeTableRecord
  2
AI-Linetype-11
 70
     0
  3
Adobe Illustrator Linetype No. 11
 72
    65
 73
     4
 40
3.697113724098473
 49
2.848329782592629
 74
     0
 49
-0.2829279805019478
 74
     0
 49
0.2829279805019478
 74
     0
 49
-0.2829279805019478
 74
     0
  0
LTYPE
  5
4D0
330
5
100
AcDbSymbolTableRecord
100
AcDbLinetypeTableRecord
  2
AI-Linetype-12
 70
     0
  3
Adobe Illustrator Linetype No. 12
 72
    65
 73
     4
 40
3.697113724098473
 49
2.848329782592629
 74
     0
 49
-0.2829279805019478
 74
     0
 49
0.2829279805019478
 74
     0
 49
-0.2829279805019478
 74
     0
  0
LTYPE
  5
4D5
330
5
100
AcDbSymbolTableRecord
100
AcDbLinetypeTableRecord
  2
AI-Linetype-13
 70
     0
  3
Adobe Illustrator Linetype No. 13
 72
    65
 73
     4
 40
3.697113724098473
 49
2.848329782592629
 74
     0
 49
-0.2829279805019478
 74
     0
 49
0.2829279805019478
 74
     0
 49
-0.2829279805019478
 74
     0
  0
ENDTAB
  0
TABLE
  2
LAYER
  5
2
330
0
100
AcDbSymbolTable
 70
     6
  0
LAYER
  5
10
330
2
100
AcDbSymbolTableRecord
100
AcDbLayerTableRecord
  2
0
 70
     0
 62
     7
  6
Continuous
370
    -3
390
F
  0
LAYER
  5
3B
330
2
100
AcDbSymbolTableRecord
100
AcDbLayerTableRecord
  2
Standardebene
 70
     0
 62
     7
  6
Continuous
370
    -3
390
F
  0
LAYER
  5
3C
330
2
100
AcDbSymbolTableRecord
100
AcDbLayerTableRecord
  2
Layer 1
 70
     0
 62
     7
  6
Continuous
370
    -3
390
F
  0
LAYER
  5
3D
330
2
100
AcDbSymbolTableRecord
100
AcDbLayerTableRecord
  2
Ebene 5
 70
     0
 62
     7
  6
Continuous
370
    -3
390
F
  0
LAYER
  5
379
330
2
100
AcDbSymbolTableRecord
100
AcDbLayerTableRecord
  2
Ebene 4
 70
     0
 62
     7
  6
Continuous
370
    -3
390
F
  0
LAYER
  5
494
330
2
100
AcDbSymbolTableRecord
100
AcDbLayerTableRecord
  2
Ebene 6
 70
     0
 62
     7
  6
Continuous
370
    -3
390
F
  0
ENDTAB
  0
TABLE
  2
STYLE
  5
3
330
0
100
AcDbSymbolTable
 70
     1
  0
STYLE
  5
11
330
3
100
AcDbSymbolTableRecord
100
AcDbTextStyleTableRecord
  2
Standard
 70
     0
 40
0.0
 41
1.0
 50
0.0
 71
     0
 42
0.2
  3
txt
  4

  0
ENDTAB
  0
TABLE
  2
VIEW
  5
6
330
0
100
AcDbSymbolTable
 70
     0
  0
ENDTAB
  0
TABLE
  2
UCS
  5
7
330
0
100
AcDbSymbolTable
 70
     0
  0
ENDTAB
  0
TABLE
  2
APPID
  5
9
330
0
100
AcDbSymbolTable
 70
     1
  0
APPID
  5
12
330
9
100
AcDbSymbolTableRecord
100
AcDbRegAppTableRecord
  2
ACAD
 70
     0
  0
ENDTAB
  0
TABLE
  2
DIMSTYLE
  5
A
330
0
100
AcDbSymbolTable
 70
     1
100
AcDbDimStyleTable
  0
DIMSTYLE
105
27
330
A
100
AcDbSymbolTableRecord
100
AcDbDimStyleTableRecord
  2
Standard
 70
     0
340
11
  0
ENDTAB
  0
TABLE
  2
BLOCK_RECORD
  5
1
330
0
100
AcDbSymbolTable
 70
     4
  0
BLOCK_RECORD
  5
1F
330
1
100
AcDbSymbolTableRecord
100
AcDbBlockTableRecord
  2
*Model_Space
340
22
  0
BLOCK_RECORD
  5
1B
330
1
100
AcDbSymbolTableRecord
100
AcDbBlockTableRecord
  2
*Paper_Space
340
1E
  0
BLOCK_RECORD
  5
23
330
1
100
AcDbSymbolTableRecord
100
AcDbBlockTableRecord
  2
*Paper_Space0
340
26
  0
BLOCK_RECORD
  5
3E
330
1
100
AcDbSymbolTableRecord
100
AcDbBlockTableRecord
  2
block 2
340
0
102
{BLKREFS
331
3F
102
}
  0
BLOCK_RECORD
  5
42
330
1
100
AcDbSymbolTableRecord
100
AcDbBlockTableRecord
  2
block 3
340
0
102
{BLKREFS
331
43
102
}
  0
BLOCK_RECORD
  5
168
330
1
100
AcDbSymbolTableRecord
100
AcDbBlockTableRecord
  2
block 4
340
0
102
{BLKREFS
331
169
102
}
  0
ENDTAB
  0
ENDSEC
  0
SECTION
  2
BLOCKS
  0
BLOCK
  5
20
330
1F
100
AcDbEntity
  8
0
100
AcDbBlockBegin
  2
*Model_Space
 70
     0
 71
     0
 10
0.0
 20
0.0
 30
0.0
  3
*Model_Space
  1

  0
ENDBLK
  5
21
330
1F
100
AcDbEntity
  8
0
100
AcDbBlockEnd
  0
BLOCK
  5
1C
330
1B
100
AcDbEntity
 67
     1
  8
0
100
AcDbBlockBegin
  2
*Paper_Space
 70
     0
 71
     0
 10
0.0
 20
0.0
 30
0.0
  3
*Paper_Space
  1

  0
ENDBLK
  5
1D
330
1B
100
AcDbEntity
 67
     1
  8
0
100
AcDbBlockEnd
  0
BLOCK
  5
24
330
23
100
AcDbEntity
  8
0
100
AcDbBlockBegin
  2
*Paper_Space0
 70
     0
 71
     0
 10
0.0
 20
0.0
 30
0.0
  3
*Paper_Space0
  1

  0
ENDBLK
  5
25
330
23
100
AcDbEntity
  8
0
100
AcDbBlockEnd
  0
BLOCK
  5
40
330
3E
100
AcDbEntity
  8
0
100
AcDbBlockBegin
  2
block 2
 70
     0
 71
     0
 10
0.0
 20
0.0
 30
0.0
  3
block 2
  1

  0
INSERT
  5
43
330
3E
100
AcDbEntity
  8
Ebene 5
100
AcDbBlockReference
  2
block 3
 10
0.0
 20
0.0
 30
0.0
  0
ENDBLK
  5
41
330
3E
100
AcDbEntity
  8
0
100
AcDbBlockEnd
  0
BLOCK
  5
44
330
42
100
AcDbEntity
  8
0
100
AcDbBlockBegin
  2
block 3
 70
     0
 71
     0
 10
0.0
 20
0.0
 30
0.0
  3
block 3
  1

  0
SPLINE
  5
46
330
42
100
AcDbEntity
  8
Ebene 5
 62
     7
370
    18
100
AcDbSpline
210
0.0
220
0.0
230
1.0
 70
    11
 71
     3
 72
    17
 73
    13
 74
     0
 42
0.0000000001
 43
0.0000000001
 40
0.0
 40
0.0
 40
0.0
 40
0.0
 40
1.0
 40
1.0
 40
1.0
 40
2.0
 40
2.0
 40
2.0
 40
3.0
 40
3.0
 40
3.0
 40
4.0
 40
4.0
 40
4.0
 40
4.0
 10
188.8388994853604
 20
95.91427765985978
 30
0.0
 10
188.8388994853604
 20
96.52819408032855
 30
0.0
 10
188.3421163886623
 20
97.02497717702663
 30
0.0
 10
187.7292334975209
 20
97.02497717702663
 30
0.0
 10
187.115661586828
 20
97.02497717702663
 30
0.0
 10
186.6181894705783
 20
96.52819408032855
 30
0.0
 10
186.6181894705783
 20
95.91427765985978
 30
0.0
 10
186.6181894705783
 20
95.3010502589426
 30
0.0
 10
187.115661586828
 20
94.80392265246873
 30
0.0
 10
187.7292334975209
 20
94.80392265246873
 30
0.0
 10
188.3421163886623
 20
94.80392265246873
 30
0.0
 10
188.8388994853604
 20
95.3010502589426
 30
0.0
 10
188.8388994853604
 20
95.91427765985978
 30
0.0
  0
SPLINE
  5
47
330
42
100
AcDbEntity
  8
Ebene 5
 62
     7
370
    18
100
AcDbSpline
210
0.0
220
0.0
230
1.0
 70
     8
 71
     3
 72
     8
 73
     4
 74
     0
 42
0.0000000001
 43
0.0000000001
 40
0.0
 40
0.0
 40
0.0
 40
0.0
 40
1.0
 40
1.0
 40
1.0
 40
1.0
 10
205.4966361646568
 20
95.91427765985978
 30
0.0
 10
205.4966361646568
 20
96.52819408032855
 30
0.0
 10
204.9991640484071
 20
97.02497717702663
 30
0.0
 10
204.3866256670415
 20
97.02497717702663
 30
0.0
  0
SPLINE
  5
48
330
42
100
AcDbEntity
  8
Ebene 5
 62
     7
370
    18
100
AcDbSpline
210
0.0
220
0.0
230
1.0
 70
     8
 71
     3
 72
     8
 73
     4
 74
     0
 42
0.0000000001
 43
0.0000000001
 40
0.0
 40
0.0
 40
0.0
 40
0.0
 40
1.0
 40
1.0
 40
1.0
 40
1.0
 10
204.3866256670415
 20
94.80392265246873
 30
0.0
 10
204.9991640484071
 20
94.80392265246873
 30
0.0
 10
205.4966361646568
 20
95.3010502589426
 30
0.0
 10
205.4966361646568
 20
95.91427765985978
 30
0.0
  0
POLYLINE
  5
49
330
42
100
AcDbEntity
  8
Ebene 5
 62
     7
370
    18
100
AcDb2dPolyline
 66
     1
 10
0.0
 20
0.0
 30
0.0
  0
VERTEX
  5
4A
330
49
100
AcDbEntity
  8
Ebene 5
 62
     7
370
    18
100
AcDbVertex
100
AcDb2dVertex
 10
206.7919929216503
 20
98.87602820237944
 30
0.0
  0
VERTEX
  5
4B
330
49
100
AcDbEntity
  8
Ebene 5
 62
     7
370
    18
100
AcDbVertex
100
AcDb2dVertex
 10
206.7919929216503
 20
92.95321613689171
 30
0.0
  0
SEQEND
  5
4C
330
49
100
AcDbEntity
  8
Ebene 5
370
    18
  0
POLYLINE
  5
4D
330
42
100
AcDbEntity
  8
Ebene 5
 62
     7
370
    18
100
AcDb2dPolyline
 66
     1
 10
0.0
 20
0.0
 30
0.0
  0
VERTEX
  5
4E
330
4D
100
AcDbEntity
  8
Ebene 5
 62
     7
370
    18
100
AcDbVertex
100
AcDb2dVertex
 10
185.3231772233605
 20
98.87602820237944
 30
0.0
  0
VERTEX
  5
4F
330
4D
100
AcDbEntity
  8
Ebene 5
 62
     7
370
    18
100
AcDbVertex
100
AcDb2dVertex
 10
185.3231772233605
 20
92.95321613689171
 30
0.0
  0
SEQEND
  5
50
330
4D
100
AcDbEntity
  8
Ebene 5
370
    18
  0
POLYLINE
  5
51
330
42
100
AcDbEntity
  8
Ebene 5
 62
     7
370
    18
100
AcDb2dPolyline
 66
     1
 10
0.0
 20
0.0
 30
0.0
  0
VERTEX
  5
52
330
51
100
AcDbEntity
  8
Ebene 5
 62
     7
370
    18
100
AcDbVertex
100
AcDb2dVertex
 10
206.7919929216503
 20
98.87602820237944
 30
0.0
  0
VERTEX
  5
53
330
51
100
AcDbEntity
  8
Ebene 5
 62
     7
370
    18
100
AcDbVertex
100
AcDb2dVertex
 10
185.3231772233605
 20
98.87602820237944
 30
0.0
  0
SEQEND
  5
54
330
51
100
AcDbEntity
  8
Ebene 5
370
    18
  0
POLYLINE
  5
55
330
42
100
AcDbEntity
  8
Ebene 5
 62
     7
370
    18
100
AcDb2dPolyline
 66
     1
 10
0.0
 20
0.0
 30
0.0
  0
VERTEX
  5
56
330
55
100
AcDbEntity
  8
Ebene 5
 62
     7
370
    18
100
AcDbVertex
100
AcDb2dVertex
 10
206.7919929216503
 20
92.95321613689171
 30
0.0
  0
VERTEX
  5
57
330
55
100
AcDbEntity
  8
Ebene 5
 62
     7
370
    18
100
AcDbVertex
100
AcDb2dVertex
 10
194.8388817406265
 20
92.95321613689171
 30
0.0
  0
SEQEND
  5
58
330
55
100
AcDbEntity
  8
Ebene 5
370
    18
  0
POLYLINE
  5
59
330
42
100
AcDbEntity
  8
Ebene 5
 62
     7
370
    18
100
AcDb2dPolyline
 66
     1
 10
0.0
 20
0.0
 30
0.0
  0
VERTEX
  5
5A
330
59
100
AcDbEntity
  8
Ebene 5
 62
     7
370
    18
100
AcDbVertex
100
AcDb2dVertex
 10
191.7245133674291
 20
92.95321613689171
 30
0.0
  0
VERTEX
  5
5B
330
59
100
AcDbEntity
  8
Ebene 5
 62
     7
370
    18
100
AcDbVertex
100
AcDb2dVertex
 10
185.3231772233605
 20
92.95321613689171
 30
0.0
  0
SEQEND
  5
5C
330
59
100
AcDbEntity
  8
Ebene 5
370
    18
  0
POLYLINE
  5
5D
330
42
100
AcDbEntity
  8
Ebene 5
 62
     7
370
    18
100
AcDb2dPolyline
 66
     1
 10
0.0
 20
0.0
 30
0.0
  0
VERTEX
  5
5E
330
5D
100
AcDbEntity
  8
Ebene 5
 62
     7
370
    18
100
AcDbVertex
100
AcDb2dVertex
 10
206.7919929216503
 20
98.13567669419348
 30
0.0
  0
VERTEX
  5
5F
330
5D
100
AcDbEntity
  8
Ebene 5
 62
     7
370
    18
100
AcDbVertex
100
AcDb2dVertex
 10
196.845995694415
 20
98.13567669419348
 30
0.0
  0
SEQEND
  5
60
330
5D
100
AcDbEntity
  8
Ebene 5
370
    18
  0
POLYLINE
  5
61
330
42
100
AcDbEntity
  8
Ebene 5
 62
     7
370
    18
100
AcDb2dPolyline
 66
     1
 10
0.0
 20
0.0
 30
0.0
  0
VERTEX
  5
62
330
61
100
AcDbEntity
  8
Ebene 5
 62
     7
370
    18
100
AcDbVertex
100
AcDb2dVertex
 10
189.7180884331922
 20
98.13567669419348
 30
0.0
  0
VERTEX
  5
63
330
61
100
AcDbEntity
  8
Ebene 5
 62
     7
370
    18
100
AcDbVertex
100
AcDb2dVertex
 10
185.3231772233605
 20
98.13567669419348
 30
0.0
  0
SEQEND
  5
64
330
61
100
AcDbEntity
  8
Ebene 5
370
    18
  0
POLYLINE
  5
65
330
42
100
AcDbEntity
  8
Ebene 5
 62
     7
370
    18
100
AcDb2dPolyline
 66
     1
 10
0.0
 20
0.0
 30
0.0
  0
VERTEX
  5
66
330
65
100
AcDbEntity
  8
Ebene 5
 62
     7
370
    18
100
AcDbVertex
100
AcDb2dVertex
 10
206.7919929216503
 20
93.69425666462926
 30
0.0
  0
VERTEX
  5
67
330
65
100
AcDbEntity
  8
Ebene 5
 62
     7
370
    18
100
AcDbVertex
100
AcDb2dVertex
 10
194.8388817406265
 20
93.69425666462926
 30
0.0
  0
SEQEND
  5
68
330
65
100
AcDbEntity
  8
Ebene 5
370
    18
  0
POLYLINE
  5
69
330
42
100
AcDbEntity
  8
Ebene 5
 62
     7
370
    18
100
AcDb2dPolyline
 66
     1
 10
0.0
 20
0.0
 30
0.0
  0
VERTEX
  5
6A
330
69
100
AcDbEntity
  8
Ebene 5
 62
     7
370
    18
100
AcDbVertex
100
AcDb2dVertex
 10
191.7245133674291
 20
93.69425666462926
 30
0.0
  0
VERTEX
  5
6B
330
69
100
AcDbEntity
  8
Ebene 5
 62
     7
370
    18
100
AcDbVertex
100
AcDb2dVertex
 10
185.3231772233605
 20
93.69425666462926
 30
0.0
  0
SEQEND
  5
6C
330
69
100
AcDbEntity
  8
Ebene 5
370
    18
  0
SPLINE
  5
6D
330
42
100
AcDbEntity
  8
Ebene 5
 62
     7
370
    18
100
AcDbSpline
210
0.0
220
0.0
230
1.0
 70
     8
 71
     3
 72
    11
 73
     7
 74
     0
 42
0.0000000001
 43
0.0000000001
 40
0.0
 40
0.0
 40
0.0
 40
0.0
 40
1.0
 40
1.0
 40
1.0
 40
2.0
 40
2.0
 40
2.0
 40
2.0
 10
201.2398733749193
 20
97.02497717702663
 30
0.0
 10
200.6269904837779
 20
97.02497717702663
 30
0.0
 10
200.129862877304
 20
96.52819408032855
 30
0.0
 10
200.129862877304
 20
95.91427765985978
 30
0.0
 10
200.129862877304
 20
95.3010502589426
 30
0.0
 10
200.6269904837779
 20
94.80392265246873
 30
0.0
 10
201.2398733749193
 20
94.80392265246873
 30
0.0
  0
POLYLINE
  5
6E
330
42
100
AcDbEntity
  8
Ebene 5
 62
     7
370
    18
100
AcDb2dPolyline
 66
     1
 10
0.0
 20
0.0
 30
0.0
  0
VERTEX
  5
6F
330
6E
100
AcDbEntity
  8
Ebene 5
 62
     7
370
    18
100
AcDbVertex
100
AcDb2dVertex
 10
204.3866256670415
 20
97.02497717702663
 30
0.0
  0
VERTEX
  5
70
330
6E
100
AcDbEntity
  8
Ebene 5
 62
     7
370
    18
100
AcDbVertex
100
AcDb2dVertex
 10
201.2398733749193
 20
97.02497717702663
 30
0.0
  0
SEQEND
  5
71
330
6E
100
AcDbEntity
  8
Ebene 5
370
    18
  0
POLYLINE
  5
72
330
42
100
AcDbEntity
  8
Ebene 5
 62
     7
370
    18
100
AcDb2dPolyline
 66
     1
 10
0.0
 20
0.0
 30
0.0
  0
VERTEX
  5
73
330
72
100
AcDbEntity
  8
Ebene 5
 62
     7
370
    18
100
AcDbVertex
100
AcDb2dVertex
 10
201.2398733749193
 20
94.80392265246873
 30
0.0
  0
VERTEX
  5
74
330
72
100
AcDbEntity
  8
Ebene 5
 62
     7
370
    18
100
AcDbVertex
100
AcDb2dVertex
 10
204.3866256670415
 20
94.80392265246873
 30
0.0
  0
SEQEND
  5
75
330
72
100
AcDbEntity
  8
Ebene 5
370
    18
  0
ENDBLK
  5
45
330
42
100
AcDbEntity
  8
0
100
AcDbBlockEnd
  0
BLOCK
  5
16A
330
168
100
AcDbEntity
  8
0
100
AcDbBlockBegin
  2
block 4
 70
     0
 71
     0
 10
0.0
 20
0.0
 30
0.0
  3
block 4
  1

  0
POLYLINE
  5
16C
330
168
100
AcDbEntity
  8
Ebene 5
 62
     7
370
    18
100
AcDb2dPolyline
 66
     1
 10
0.0
 20
0.0
 30
0.0
  0
VERTEX
  5
16D
330
16C
100
AcDbEntity
  8
Ebene 5
 62
     7
370
    18
100
AcDbVertex
100
AcDb2dVertex
 10
91.49938488303187
 20
65.56021033401093
 30
0.0
  0
VERTEX
  5
16E
330
16C
100
AcDbEntity
  8
Ebene 5
 62
     7
370
    18
100
AcDbVertex
100
AcDb2dVertex
 10
86.68778909937468
 20
70.37232288233182
 30
0.0
  0
VERTEX
  5
16F
330
16C
100
AcDbEntity
  8
Ebene 5
 62
     7
370
    18
100
AcDbVertex
100
AcDb2dVertex
 10
86.68778909937468
 20
75.92547595839027
 30
0.0
  0
VERTEX
  5
170
330
16C
100
AcDbEntity
  8
Ebene 5
 62
     7
370
    18
100
AcDbVertex
100
AcDb2dVertex
 10
91.49938488303187
 20
80.73793301648695
 30
0.0
  0
VERTEX
  5
171
330
16C
100
AcDbEntity
  8
Ebene 5
 62
     7
370
    18
100
AcDbVertex
100
AcDb2dVertex
 10
96.68184544033365
 20
80.73793301648695
 30
0.0
  0
VERTEX
  5
172
330
16C
100
AcDbEntity
  8
Ebene 5
 62
     7
370
    18
100
AcDbVertex
100
AcDb2dVertex
 10
96.68184544033365
 20
82.58795051251238
 30
0.0
  0
VERTEX
  5
173
330
16C
100
AcDbEntity
  8
Ebene 5
 62
     7
370
    18
100
AcDbVertex
100
AcDb2dVertex
 10
100.0137717369463
 20
82.58795051251238
 30
0.0
  0
VERTEX
  5
174
330
16C
100
AcDbEntity
  8
Ebene 5
 62
     7
370
    18
100
AcDbVertex
100
AcDb2dVertex
 10
100.0137717369463
 20
83.51399278985248
 30
0.0
  0
VERTEX
  5
175
330
16C
100
AcDbEntity
  8
Ebene 5
 62
     7
370
    18
100
AcDbVertex
100
AcDb2dVertex
 10
100.661622370331
 20
83.51399278985248
 30
0.0
  0
VERTEX
  5
176
330
16C
100
AcDbEntity
  8
Ebene 5
 62
     7
370
    18
100
AcDbVertex
100
AcDb2dVertex
 10
100.661622370331
 20
85.3643547956537
 30
0.0
  0
VERTEX
  5
177
330
16C
100
AcDbEntity
  8
Ebene 5
 62
     7
370
    18
100
AcDbVertex
100
AcDb2dVertex
 10
104.1776891421067
 20
85.3643547956537
 30
0.0
  0
VERTEX
  5
178
330
16C
100
AcDbEntity
  8
Ebene 5
 62
     7
370
    18
100
AcDbVertex
100
AcDb2dVertex
 10
104.1776891421067
 20
83.51399278985248
 30
0.0
  0
VERTEX
  5
179
330
16C
100
AcDbEntity
  8
Ebene 5
 62
     7
370
    18
100
AcDbVertex
100
AcDb2dVertex
 10
104.8257120303793
 20
83.51399278985248
 30
0.0
  0
VERTEX
  5
17A
330
16C
100
AcDbEntity
  8
Ebene 5
 62
     7
370
    18
100
AcDbVertex
100
AcDb2dVertex
 10
104.8257120303793
 20
82.58795051251238
 30
0.0
  0
VERTEX
  5
17B
330
16C
100
AcDbEntity
  8
Ebene 5
 62
     7
370
    18
100
AcDbVertex
100
AcDb2dVertex
 10
108.157466072104
 20
82.58795051251238
 30
0.0
  0
VERTEX
  5
17C
330
16C
100
AcDbEntity
  8
Ebene 5
 62
     7
370
    18
100
AcDbVertex
100
AcDb2dVertex
 10
108.157466072104
 20
80.73793301648695
 30
0.0
  0
VERTEX
  5
17D
330
16C
100
AcDbEntity
  8
Ebene 5
 62
     7
370
    18
100
AcDbVertex
100
AcDb2dVertex
 10
108.8974730705142
 20
80.73793301648695
 30
0.0
  0
VERTEX
  5
17E
330
16C
100
AcDbEntity
  8
Ebene 5
 62
     7
370
    18
100
AcDbVertex
100
AcDb2dVertex
 10
108.8974730705142
 20
78.7015357317558
 30
0.0
  0
VERTEX
  5
17F
330
16C
100
AcDbEntity
  8
Ebene 5
 62
     7
370
    18
100
AcDbVertex
100
AcDb2dVertex
 10
108.8974730705142
 20
67.59660761874208
 30
0.0
  0
VERTEX
  5
180
330
16C
100
AcDbEntity
  8
Ebene 5
 62
     7
370
    18
100
AcDbVertex
100
AcDb2dVertex
 10
108.8974730705142
 20
65.56021033401093
 30
0.0
  0
VERTEX
  5
181
330
16C
100
AcDbEntity
  8
Ebene 5
 62
     7
370
    18
100
AcDbVertex
100
AcDb2dVertex
 10
108.157466072104
 20
65.56021033401093
 30
0.0
  0
VERTEX
  5
182
330
16C
100
AcDbEntity
  8
Ebene 5
 62
     7
370
    18
100
AcDbVertex
100
AcDb2dVertex
 10
108.157466072104
 20
63.70984832820971
 30
0.0
  0
VERTEX
  5
183
330
16C
100
AcDbEntity
  8
Ebene 5
 62
     7
370
    18
100
AcDbVertex
100
AcDb2dVertex
 10
104.8257120303793
 20
63.70984832820971
 30
0.0
  0
VERTEX
  5
184
330
16C
100
AcDbEntity
  8
Ebene 5
 62
     7
370
    18
100
AcDbVertex
100
AcDb2dVertex
 10
104.8257120303793
 20
62.78483958019699
 30
0.0
  0
VERTEX
  5
185
330
16C
100
AcDbEntity
  8
Ebene 5
 62
     7
370
    18
100
AcDbVertex
100
AcDb2dVertex
 10
104.1776891421067
 20
62.78483958019699
 30
0.0
  0
VERTEX
  5
186
330
16C
100
AcDbEntity
  8
Ebene 5
 62
     7
370
    18
100
AcDbVertex
100
AcDb2dVertex
 10
104.1776891421067
 20
60.93378855484418
 30
0.0
  0
VERTEX
  5
187
330
16C
100
AcDbEntity
  8
Ebene 5
 62
     7
370
    18
100
AcDbVertex
100
AcDb2dVertex
 10
100.6609333507794
 20
60.93378855484418
 30
0.0
  0
VERTEX
  5
188
330
16C
100
AcDbEntity
  8
Ebene 5
 62
     7
370
    18
100
AcDbVertex
100
AcDb2dVertex
 10
100.6609333507794
 20
62.78483958019699
 30
0.0
  0
VERTEX
  5
189
330
16C
100
AcDbEntity
  8
Ebene 5
 62
     7
370
    18
100
AcDbVertex
100
AcDb2dVertex
 10
100.0137717369463
 20
62.78483958019699
 30
0.0
  0
VERTEX
  5
18A
330
16C
100
AcDbEntity
  8
Ebene 5
 62
     7
370
    18
100
AcDbVertex
100
AcDb2dVertex
 10
100.0137717369463
 20
63.70984832820971
 30
0.0
  0
VERTEX
  5
18B
330
16C
100
AcDbEntity
  8
Ebene 5
 62
     7
370
    18
100
AcDbVertex
100
AcDb2dVertex
 10
96.68184544033365
 20
63.70984832820971
 30
0.0
  0
VERTEX
  5
18C
330
16C
100
AcDbEntity
  8
Ebene 5
 62
     7
370
    18
100
AcDbVertex
100
AcDb2dVertex
 10
96.68184544033365
 20
65.56124386333832
 30
0.0
  0
VERTEX
  5
18D
330
16C
100
AcDbEntity
  8
Ebene 5
 62
     7
370
    18
100
AcDbVertex
100
AcDb2dVertex
 10
91.49938488303187
 20
65.56124386333832
 30
0.0
  0
SEQEND
  5
18E
330
16C
100
AcDbEntity
  8
Ebene 5
370
    18
  0
SPLINE
  5
18F
330
168
100
AcDbEntity
  8
Ebene 5
 62
     7
370
    18
100
AcDbSpline
210
0.0
220
0.0
230
1.0
 70
    11
 71
     3
 72
    17
 73
    13
 74
     0
 42
0.0000000001
 43
0.0000000001
 40
0.0
 40
0.0
 40
0.0
 40
0.0
 40
1.0
 40
1.0
 40
1.0
 40
2.0
 40
2.0
 40
2.0
 40
3.0
 40
3.0
 40
3.0
 40
4.0
 40
4.0
 40
4.0
 40
4.0
 10
103.2771405881755
 20
77.77067031755455
 30
0.0
 10
103.2771405881755
 20
78.40284575614051
 30
0.0
 10
102.7648545515666
 20
78.915820812301
 30
0.0
 10
102.1326791129806
 20
78.915820812301
 30
0.0
 10
101.5001591646189
 20
78.915820812301
 30
0.0
 10
100.9875286182342
 20
78.40284575614051
 30
0.0
 10
100.9875286182342
 20
77.77067031755455
 30
0.0
 10
100.9875286182342
 20
77.13849487896857
 30
0.0
 10
101.5001591646189
 20
76.62551982280807
 30
0.0
 10
102.1326791129806
 20
76.62551982280807
 30
0.0
 10
102.7648545515666
 20
76.62551982280807
 30
0.0
 10
103.2771405881755
 20
77.13849487896857
 30
0.0
 10
103.2771405881755
 20
77.77067031755455
 30
0.0
  0
POLYLINE
  5
190
330
168
100
AcDbEntity
  8
Ebene 5
 62
     7
370
    18
100
AcDb2dPolyline
 66
     1
 10
0.0
 20
0.0
 30
0.0
  0
VERTEX
  5
191
330
190
100
AcDbEntity
  8
Ebene 5
 62
     7
370
    18
100
AcDbVertex
100
AcDb2dVertex
 10
100.9992419506112
 20
77.93017834374817
 30
0.0
  0
VERTEX
  5
192
330
190
100
AcDbEntity
  8
Ebene 5
 62
     7
370
    18
100
AcDbVertex
100
AcDb2dVertex
 10
103.26611627535
 20
77.93017834374817
 30
0.0
  0
SEQEND
  5
193
330
190
100
AcDbEntity
  8
Ebene 5
370
    18
  0
POLYLINE
  5
194
330
168
100
AcDbEntity
  8
Ebene 5
 62
     7
370
    18
100
AcDb2dPolyline
 66
     1
 10
0.0
 20
0.0
 30
0.0
  0
VERTEX
  5
195
330
194
100
AcDbEntity
  8
Ebene 5
 62
     7
370
    18
100
AcDbVertex
100
AcDb2dVertex
 10
100.9992419506112
 20
77.61047327180933
 30
0.0
  0
VERTEX
  5
196
330
194
100
AcDbEntity
  8
Ebene 5
 62
     7
370
    18
100
AcDbVertex
100
AcDb2dVertex
 10
103.26611627535
 20
77.61047327180933
 30
0.0
  0
SEQEND
  5
197
330
194
100
AcDbEntity
  8
Ebene 5
370
    18
  0
SPLINE
  5
198
330
168
100
AcDbEntity
  8
Ebene 5
 62
     7
370
    18
100
AcDbSpline
210
0.0
220
0.0
230
1.0
 70
    11
 71
     3
 72
    17
 73
    13
 74
     0
 42
0.0000000001
 43
0.0000000001
 40
0.0
 40
0.0
 40
0.0
 40
0.0
 40
1.0
 40
1.0
 40
1.0
 40
2.0
 40
2.0
 40
2.0
 40
3.0
 40
3.0
 40
3.0
 40
4.0
 40
4.0
 40
4.0
 40
4.0
 10
103.2771405881755
 20
68.52781754271913
 30
0.0
 10
103.2771405881755
 20
69.15964847152931
 30
0.0
 10
102.7648545515666
 20
69.6726235276898
 30
0.0
 10
102.1326791129806
 20
69.6726235276898
 30
0.0
 10
101.5001591646189
 20
69.6726235276898
 30
0.0
 10
100.9875286182342
 20
69.15964847152931
 30
0.0
 10
100.9875286182342
 20
68.52781754271913
 30
0.0
 10
100.9875286182342
 20
67.89460857480577
 30
0.0
 10
101.5001591646189
 20
67.38197802842107
 30
0.0
 10
102.1326791129806
 20
67.38197802842107
 30
0.0
 10
102.7648545515666
 20
67.38197802842107
 30
0.0
 10
103.2771405881755
 20
67.89460857480577
 30
0.0
 10
103.2771405881755
 20
68.52781754271913
 30
0.0
  0
POLYLINE
  5
199
330
168
100
AcDbEntity
  8
Ebene 5
 62
     7
370
    18
100
AcDb2dPolyline
 66
     1
 10
0.0
 20
0.0
 30
0.0
  0
VERTEX
  5
19A
330
199
100
AcDbEntity
  8
Ebene 5
 62
     7
370
    18
100
AcDbVertex
100
AcDb2dVertex
 10
100.9992419506112
 20
68.68698105913695
 30
0.0
  0
VERTEX
  5
19B
330
199
100
AcDbEntity
  8
Ebene 5
 62
     7
370
    18
100
AcDbVertex
100
AcDb2dVertex
 10
103.26611627535
 20
68.68698105913695
 30
0.0
  0
SEQEND
  5
19C
330
199
100
AcDbEntity
  8
Ebene 5
370
    18
  0
POLYLINE
  5
19D
330
168
100
AcDbEntity
  8
Ebene 5
 62
     7
370
    18
100
AcDb2dPolyline
 66
     1
 10
0.0
 20
0.0
 30
0.0
  0
VERTEX
  5
19E
330
19D
100
AcDbEntity
  8
Ebene 5
 62
     7
370
    18
100
AcDbVertex
100
AcDb2dVertex
 10
100.9992419506112
 20
68.36727598719811
 30
0.0
  0
VERTEX
  5
19F
330
19D
100
AcDbEntity
  8
Ebene 5
 62
     7
370
    18
100
AcDbVertex
100
AcDb2dVertex
 10
103.26611627535
 20
68.36727598719811
 30
0.0
  0
SEQEND
  5
1A0
330
19D
100
AcDbEntity
  8
Ebene 5
370
    18
  0
MTEXT
  5
1A1
330
168
100
AcDbEntity
  8
Ebene 5
 62
     7
100
AcDbMText
 10
98.7712972305374
 20
77.86058736903735
 30
0.0
 40
2.131147942942506
 41
0.0
 71
     7
 72
     1
  1
\fASSA Vesta|b0|i0|c0|p34;\W1;S
 73
     1
 44
1.0
  0
MTEXT
  5
1A2
330
168
100
AcDbEntity
  8
Ebene 5
 62
     7
100
AcDbMText
 10
98.951131333503
 20
66.05940499913957
 30
0.0
 40
2.131147942942506
 41
0.0
 71
     7
 72
     1
  1
\fASSA Vesta|b0|i0|c0|p34;\W1;L
 73
     1
 44
1.0
  0
POLYLINE
  5
1A3
330
168
100
AcDbEntity
  8
Ebene 5
 62
     7
370
    18
100
AcDb2dPolyline
 66
     1
 10
0.0
 20
0.0
 30
0.0
  0
VERTEX
  5
1A4
330
1A3
100
AcDbEntity
  8
Ebene 5
 62
     7
370
    18
100
AcDbVertex
100
AcDb2dVertex
 10
86.68778909937468
 20
75.92547595839027
 30
0.0
  0
VERTEX
  5
1A5
330
1A3
100
AcDbEntity
  8
Ebene 5
 62
     7
370
    18
100
AcDbVertex
100
AcDb2dVertex
 10
86.68778909937468
 20
70.37232288233182
 30
0.0
  0
SEQEND
  5
1A6
330
1A3
100
AcDbEntity
  8
Ebene 5
370
    18
  0
POLYLINE
  5
1A7
330
168
100
AcDbEntity
  8
Ebene 5
 62
     7
370
    18
100
AcDb2dPolyline
 66
     1
 10
0.0
 20
0.0
 30
0.0
  0
VERTEX
  5
1A8
330
1A7
100
AcDbEntity
  8
Ebene 5
 62
     7
370
    18
100
AcDbVertex
100
AcDb2dVertex
 10
91.49938488303187
 20
80.73793301648695
 30
0.0
  0
VERTEX
  5
1A9
330
1A7
100
AcDbEntity
  8
Ebene 5
 62
     7
370
    18
100
AcDbVertex
100
AcDb2dVertex
 10
104.8629190861653
 20
80.73793301648695
 30
0.0
  0
SEQEND
  5
1AA
330
1A7
100
AcDbEntity
  8
Ebene 5
370
    18
  0
POLYLINE
  5
1AB
330
168
100
AcDbEntity
  8
Ebene 5
 62
     7
370
    18
100
AcDb2dPolyline
 66
     1
 10
0.0
 20
0.0
 30
0.0
  0
VERTEX
  5
1AC
330
1AB
100
AcDbEntity
  8
Ebene 5
 62
     7
370
    18
100
AcDbVertex
100
AcDb2dVertex
 10
91.49938488303187
 20
65.56124386333832
 30
0.0
  0
VERTEX
  5
1AD
330
1AB
100
AcDbEntity
  8
Ebene 5
 62
     7
370
    18
100
AcDbVertex
100
AcDb2dVertex
 10
104.8629190861653
 20
65.56124386333832
 30
0.0
  0
SEQEND
  5
1AE
330
1AB
100
AcDbEntity
  8
Ebene 5
370
    18
  0
POLYLINE
  5
1AF
330
168
100
AcDbEntity
  8
Ebene 5
 62
     7
370
    18
100
AcDb2dPolyline
 66
     1
 10
0.0
 20
0.0
 30
0.0
  0
VERTEX
  5
1B0
330
1AF
100
AcDbEntity
  8
Ebene 5
 62
     7
370
    18
100
AcDbVertex
100
AcDb2dVertex
 10
106.3057260271996
 20
78.7015357317558
 30
0.0
  0
VERTEX
  5
1B1
330
1AF
100
AcDbEntity
  8
Ebene 5
 62
     7
370
    18
100
AcDbVertex
100
AcDb2dVertex
 10
108.8974730705142
 20
78.7015357317558
 30
0.0
  0
SEQEND
  5
1B2
330
1AF
100
AcDbEntity
  8
Ebene 5
370
    18
  0
POLYLINE
  5
1B3
330
168
100
AcDbEntity
  8
Ebene 5
 62
     7
370
    18
100
AcDb2dPolyline
 66
     1
 10
0.0
 20
0.0
 30
0.0
  0
VERTEX
  5
1B4
330
1B3
100
AcDbEntity
  8
Ebene 5
 62
     7
370
    18
100
AcDbVertex
100
AcDb2dVertex
 10
106.3057260271996
 20
67.59660761874208
 30
0.0
  0
VERTEX
  5
1B5
330
1B3
100
AcDbEntity
  8
Ebene 5
 62
     7
370
    18
100
AcDbVertex
100
AcDb2dVertex
 10
108.8974730705142
 20
67.59660761874208
 30
0.0
  0
SEQEND
  5
1B6
330
1B3
100
AcDbEntity
  8
Ebene 5
370
    18
  0
POLYLINE
  5
1B7
330
168
100
AcDbEntity
  8
Ebene 5
 62
     7
370
    18
100
AcDb2dPolyline
 66
     1
 10
0.0
 20
0.0
 30
0.0
  0
VERTEX
  5
1B8
330
1B7
100
AcDbEntity
  8
Ebene 5
 62
     7
370
    18
100
AcDbVertex
100
AcDb2dVertex
 10
104.8629190861653
 20
80.73793301648695
 30
0.0
  0
VERTEX
  5
1B9
330
1B7
100
AcDbEntity
  8
Ebene 5
 62
     7
370
    18
100
AcDbVertex
100
AcDb2dVertex
 10
104.8629190861653
 20
65.56124386333832
 30
0.0
  0
SEQEND
  5
1BA
330
1B7
100
AcDbEntity
  8
Ebene 5
370
    18
  0
POLYLINE
  5
1BB
330
168
100
AcDbEntity
  8
Ebene 5
 62
     7
370
    18
100
AcDb2dPolyline
 66
     1
 10
0.0
 20
0.0
 30
0.0
  0
VERTEX
  5
1BC
330
1BB
100
AcDbEntity
  8
Ebene 5
 62
     7
370
    18
100
AcDbVertex
100
AcDb2dVertex
 10
91.49938488303187
 20
65.56021033401093
 30
0.0
  0
VERTEX
  5
1BD
330
1BB
100
AcDbEntity
  8
Ebene 5
 62
     7
370
    18
100
AcDbVertex
100
AcDb2dVertex
 10
86.68778909937468
 20
70.37232288233182
 30
0.0
  0
SEQEND
  5
1BE
330
1BB
100
AcDbEntity
  8
Ebene 5
370
    18
  0
POLYLINE
  5
1BF
330
168
100
AcDbEntity
  8
Ebene 5
 62
     7
370
    18
100
AcDb2dPolyline
 66
     1
 10
0.0
 20
0.0
 30
0.0
  0
VERTEX
  5
1C0
330
1BF
100
AcDbEntity
  8
Ebene 5
 62
     7
370
    18
100
AcDbVertex
100
AcDb2dVertex
 10
86.68778909937468
 20
75.92547595839027
 30
0.0
  0
VERTEX
  5
1C1
330
1BF
100
AcDbEntity
  8
Ebene 5
 62
     7
370
    18
100
AcDbVertex
100
AcDb2dVertex
 10
91.49938488303187
 20
80.73793301648695
 30
0.0
  0
SEQEND
  5
1C2
330
1BF
100
AcDbEntity
  8
Ebene 5
370
    18
  0
POLYLINE
  5
1C3
330
168
100
AcDbEntity
  8
Ebene 5
 62
     7
370
    18
100
AcDb2dPolyline
 66
     1
 10
0.0
 20
0.0
 30
0.0
  0
VERTEX
  5
1C4
330
1C3
100
AcDbEntity
  8
Ebene 5
 62
     7
370
    18
100
AcDbVertex
100
AcDb2dVertex
 10
106.3057260271996
 20
78.7015357317558
 30
0.0
  0
VERTEX
  5
1C5
330
1C3
100
AcDbEntity
  8
Ebene 5
 62
     7
370
    18
100
AcDbVertex
100
AcDb2dVertex
 10
106.3057260271996
 20
67.59660761874208
 30
0.0
  0
SEQEND
  5
1C6
330
1C3
100
AcDbEntity
  8
Ebene 5
370
    18
  0
POLYLINE
  5
1C7
330
168
100
AcDbEntity
  8
Ebene 5
 62
     7
370
    18
100
AcDb2dPolyline
 66
     1
 10
0.0
 20
0.0
 30
0.0
  0
VERTEX
  5
1C8
330
1C7
100
AcDbEntity
  8
Ebene 5
 62
     7
370
    18
100
AcDbVertex
100
AcDb2dVertex
 10
106.3057260271996
 20
78.7015357317558
 30
0.0
  0
VERTEX
  5
1C9
330
1C7
100
AcDbEntity
  8
Ebene 5
 62
     7
370
    18
100
AcDbVertex
100
AcDb2dVertex
 10
104.8629190861653
 20
80.73793301648695
 30
0.0
  0
SEQEND
  5
1CA
330
1C7
100
AcDbEntity
  8
Ebene 5
370
    18
  0
POLYLINE
  5
1CB
330
168
100
AcDbEntity
  8
Ebene 5
 62
     7
370
    18
100
AcDb2dPolyline
 66
     1
 10
0.0
 20
0.0
 30
0.0
  0
VERTEX
  5
1CC
330
1CB
100
AcDbEntity
  8
Ebene 5
 62
     7
370
    18
100
AcDbVertex
100
AcDb2dVertex
 10
106.3057260271996
 20
67.59660761874208
 30
0.0
  0
VERTEX
  5
1CD
330
1CB
100
AcDbEntity
  8
Ebene 5
 62
     7
370
    18
100
AcDbVertex
100
AcDb2dVertex
 10
104.8629190861653
 20
65.56124386333832
 30
0.0
  0
SEQEND
  5
1CE
330
1CB
100
AcDbEntity
  8
Ebene 5
370
    18
  0
SPLINE
  5
1CF
330
168
100
AcDbEntity
  8
Ebene 5
 62
     7
370
    18
100
AcDbSpline
210
0.0
220
0.0
230
1.0
 70
    11
 71
     3
 72
    17
 73
    13
 74
     0
 42
0.0000000001
 43
0.0000000001
 40
0.0
 40
0.0
 40
0.0
 40
0.0
 40
1.0
 40
1.0
 40
1.0
 40
2.0
 40
2.0
 40
2.0
 40
3.0
 40
3.0
 40
3.0
 40
4.0
 40
4.0
 40
4.0
 40
4.0
 10
103.7987283887309
 20
68.52781754271913
 30
0.0
 10
103.7987283887309
 20
69.4473141343191
 30
0.0
 10
103.0528647241322
 20
70.19283328914202
 30
0.0
 10
102.1326791129806
 20
70.19283328914202
 30
0.0
 10
101.2128380116049
 20
70.19283328914202
 30
0.0
 10
100.4669743470061
 20
69.4473141343191
 30
0.0
 10
100.4669743470061
 20
68.52781754271913
 30
0.0
 10
100.4669743470061
 20
67.60763193156757
 30
0.0
 10
101.2128380116049
 20
66.86176826696885
 30
0.0
 10
102.1326791129806
 20
66.86176826696885
 30
0.0
 10
103.0528647241322
 20
66.86176826696885
 30
0.0
 10
103.7987283887309
 20
67.60763193156757
 30
0.0
 10
103.7987283887309
 20
68.52781754271913
 30
0.0
  0
POLYLINE
  5
1D0
330
168
100
AcDbEntity
  8
Ebene 5
 62
     7
370
    18
100
AcDb2dPolyline
 66
     1
 10
0.0
 20
0.0
 30
0.0
  0
VERTEX
  5
1D1
330
1D0
100
AcDbEntity
  8
Ebene 5
 62
     7
370
    18
100
AcDbVertex
100
AcDb2dVertex
 10
86.68778909937468
 20
73.14872716547315
 30
0.0
  0
VERTEX
  5
1D2
330
1D0
100
AcDbEntity
  8
Ebene 5
 62
     7
370
    18
100
AcDbVertex
100
AcDb2dVertex
 10
86.68778909937468
 20
70.37232288233182
 30
0.0
  0
SEQEND
  5
1D3
330
1D0
100
AcDbEntity
  8
Ebene 5
370
    18
  0
SPLINE
  5
1D4
330
168
100
AcDbEntity
  8
Ebene 5
 62
     7
370
    18
100
AcDbSpline
210
0.0
220
0.0
230
1.0
 70
    11
 71
     3
 72
    17
 73
    13
 74
     0
 42
0.0000000001
 43
0.0000000001
 40
0.0
 40
0.0
 40
0.0
 40
0.0
 40
1.0
 40
1.0
 40
1.0
 40
2.0
 40
2.0
 40
2.0
 40
3.0
 40
3.0
 40
3.0
 40
4.0
 40
4.0
 40
4.0
 40
4.0
 10
100.7219115810953
 20
73.14872716547315
 30
0.0
 10
100.7219115810953
 20
76.82912510030361
 30
0.0
 10
97.73897368736418
 20
79.81189073914685
 30
0.0
 10
94.0596092818611
 20
79.81189073914685
 30
0.0
 10
90.37972811169432
 20
79.81189073914685
 30
0.0
 10
87.3959289435237
 20
76.82912510030361
 30
0.0
 10
87.3959289435237
 20
73.14872716547315
 30
0.0
 10
87.3959289435237
 20
69.46901825019427
 30
0.0
 10
90.37972811169432
 20
66.48590810157523
 30
0.0
 10
94.0596092818611
 20
66.48590810157523
 30
0.0
 10
97.73897368736418
 20
66.48590810157523
 30
0.0
 10
100.7219115810953
 20
69.46901825019427
 30
0.0
 10
100.7219115810953
 20
73.14872716547315
 30
0.0
  0
SPLINE
  5
1D5
330
168
100
AcDbEntity
  8
Ebene 5
 62
     7
370
    18
100
AcDbSpline
210
0.0
220
0.0
230
1.0
 70
    11
 71
     3
 72
    17
 73
    13
 74
     0
 42
0.0000000001
 43
0.0000000001
 40
0.0
 40
0.0
 40
0.0
 40
0.0
 40
1.0
 40
1.0
 40
1.0
 40
2.0
 40
2.0
 40
2.0
 40
3.0
 40
3.0
 40
3.0
 40
4.0
 40
4.0
 40
4.0
 40
4.0
 10
99.05724034444822
 20
73.14872716547315
 30
0.0
 10
99.05724034444822
 20
75.90859497937625
 30
0.0
 10
96.81947709576421
 20
78.14584146339658
 30
0.0
 10
94.0596092818611
 20
78.14584146339658
 30
0.0
 10
91.30008597773379
 20
78.14584146339658
 30
0.0
 10
89.06215047416188
 20
75.90859497937625
 30
0.0
 10
89.06215047416188
 20
73.14872716547315
 30
0.0
 10
89.06215047416188
 20
70.38885935157003
 30
0.0
 10
91.30008597773379
 20
68.15195737732552
 30
0.0
 10
94.0596092818611
 20
68.15195737732552
 30
0.0
 10
96.81947709576421
 20
68.15195737732552
 30
0.0
 10
99.05724034444822
 20
70.38885935157003
 30
0.0
 10
99.05724034444822
 20
73.14872716547315
 30
0.0
  0
SPLINE
  5
1D6
330
168
100
AcDbEntity
  8
Ebene 5
 62
     7
370
    18
100
AcDbSpline
210
0.0
220
0.0
230
1.0
 70
    11
 71
     3
 72
    17
 73
    13
 74
     0
 42
0.0000000001
 43
0.0000000001
 40
0.0
 40
0.0
 40
0.0
 40
0.0
 40
1.0
 40
1.0
 40
1.0
 40
2.0
 40
2.0
 40
2.0
 40
3.0
 40
3.0
 40
3.0
 40
4.0
 40
4.0
 40
4.0
 40
4.0
 10
103.7987283887309
 20
77.77067031755455
 30
0.0
 10
103.7987283887309
 20
78.69016690915451
 30
0.0
 10
103.0528647241322
 20
79.43603057375323
 30
0.0
 10
102.1326791129806
 20
79.43603057375323
 30
0.0
 10
101.2128380116049
 20
79.43603057375323
 30
0.0
 10
100.4669743470061
 20
78.69016690915451
 30
0.0
 10
100.4669743470061
 20
77.77067031755455
 30
0.0
 10
100.4669743470061
 20
76.85117372595457
 30
0.0
 10
101.2128380116049
 20
76.10531006135587
 30
0.0
 10
102.1326791129806
 20
76.10531006135587
 30
0.0
 10
103.0528647241322
 20
76.10531006135587
 30
0.0
 10
103.7987283887309
 20
76.85117372595457
 30
0.0
 10
103.7987283887309
 20
77.77067031755455
 30
0.0
  0
SPLINE
  5
1D7
330
168
100
AcDbEntity
  8
Ebene 5
 62
     7
370
    18
100
AcDbSpline
210
0.0
220
0.0
230
1.0
 70
    11
 71
     3
 72
    17
 73
    13
 74
     0
 42
0.0000000001
 43
0.0000000001
 40
0.0
 40
0.0
 40
0.0
 40
0.0
 40
1.0
 40
1.0
 40
1.0
 40
2.0
 40
2.0
 40
2.0
 40
3.0
 40
3.0
 40
3.0
 40
4.0
 40
4.0
 40
4.0
 40
4.0
 10
96.58968907530817
 20
70.10498329631399
 30
0.0
 10
96.58968907530817
 20
70.6169248231471
 30
0.0
 10
96.17558832480117
 20
71.03102557365409
 30
0.0
 10
95.66416356263176
 20
71.03102557365409
 30
0.0
 10
95.15325556512605
 20
71.03102557365409
 30
0.0
 10
94.73915481461904
 20
70.6169248231471
 30
0.0
 10
94.73915481461904
 20
70.10498329631399
 30
0.0
 10
94.73915481461904
 20
69.59476431835986
 30
0.0
 10
95.15325556512605
 20
69.17997454830127
 30
0.0
 10
95.66416356263176
 20
69.17997454830127
 30
0.0
 10
96.17558832480117
 20
69.17997454830127
 30
0.0
 10
96.58968907530817
 20
69.59476431835986
 30
0.0
 10
96.58968907530817
 20
70.10498329631399
 30
0.0
  0
SPLINE
  5
1D8
330
168
100
AcDbEntity
  8
Ebene 5
 62
     7
370
    18
100
AcDbSpline
210
0.0
220
0.0
230
1.0
 70
    11
 71
     3
 72
    17
 73
    13
 74
     0
 42
0.0000000001
 43
0.0000000001
 40
0.0
 40
0.0
 40
0.0
 40
0.0
 40
1.0
 40
1.0
 40
1.0
 40
2.0
 40
2.0
 40
2.0
 40
3.0
 40
3.0
 40
3.0
 40
4.0
 40
4.0
 40
4.0
 40
4.0
 10
96.81844356643683
 20
76.06086830027816
 30
0.0
 10
96.81844356643683
 20
76.57143178800808
 30
0.0
 10
96.40382605126614
 20
76.98587704829087
 30
0.0
 10
95.89291805376041
 20
76.98587704829087
 30
0.0
 10
95.3820100562547
 20
76.98587704829087
 30
0.0
 10
94.96739254108401
 20
76.57143178800808
 30
0.0
 10
94.96739254108401
 20
76.06086830027816
 30
0.0
 10
94.96739254108401
 20
75.54927128322085
 30
0.0
 10
95.3820100562547
 20
75.13517053271386
 30
0.0
 10
95.89291805376041
 20
75.13517053271386
 30
0.0
 10
96.40382605126614
 20
75.13517053271386
 30
0.0
 10
96.81844356643683
 20
75.54927128322085
 30
0.0
 10
96.81844356643683
 20
76.06086830027816
 30
0.0
  0
SPLINE
  5
1D9
330
168
100
AcDbEntity
  8
Ebene 5
 62
     7
370
    18
100
AcDbSpline
210
0.0
220
0.0
230
1.0
 70
    11
 71
     3
 72
    17
 73
    13
 74
     0
 42
0.0000000001
 43
0.0000000001
 40
0.0
 40
0.0
 40
0.0
 40
0.0
 40
1.0
 40
1.0
 40
1.0
 40
2.0
 40
2.0
 40
2.0
 40
3.0
 40
3.0
 40
3.0
 40
4.0
 40
4.0
 40
4.0
 40
4.0
 10
90.58815652605101
 20
74.20533864784
 30
0.0
 10
90.07776529320898
 20
74.1870796297228
 30
0.0
 10
89.67865071794913
 20
73.75816495885657
 30
0.0
 10
89.69656522629052
 20
73.24794598090244
 30
0.0
 10
89.71516875418351
 20
72.73738249317252
 30
0.0
 10
90.14356666038606
 20
72.33706213369737
 30
0.0
 10
90.65447465789177
 20
72.35566566159036
 30
0.0
 10
91.1653826553975
 20
72.37392467970756
 30
0.0
 10
91.56484174043314
 20
72.80352837012538
 30
0.0
 10
91.54606595765226
 20
73.3137473480795
 30
0.0
 10
91.52729017487137
 20
73.82534436513681
 30
0.0
 10
91.09906452355672
 20
74.22394217573299
 30
0.0
 10
90.58815652605101
 20
74.20533864784
 30
0.0
  0
POLYLINE
  5
1DA
330
168
100
AcDbEntity
  8
Ebene 5
 62
     7
370
    18
100
AcDb2dPolyline
 66
     1
 10
0.0
 20
0.0
 30
0.0
  0
VERTEX
  5
1DB
330
1DA
100
AcDbEntity
  8
Ebene 5
 62
     7
370
    18
100
AcDbVertex
100
AcDb2dVertex
 10
104.8629190861653
 20
80.73793301648695
 30
0.0
  0
VERTEX
  5
1DC
330
1DA
100
AcDbEntity
  8
Ebene 5
 62
     7
370
    18
100
AcDbVertex
100
AcDb2dVertex
 10
108.8974730705142
 20
80.73793301648695
 30
0.0
  0
SEQEND
  5
1DD
330
1DA
100
AcDbEntity
  8
Ebene 5
370
    18
  0
POLYLINE
  5
1DE
330
168
100
AcDbEntity
  8
Ebene 5
 62
     7
370
    18
100
AcDb2dPolyline
 66
     1
 10
0.0
 20
0.0
 30
0.0
  0
VERTEX
  5
1DF
330
1DE
100
AcDbEntity
  8
Ebene 5
 62
     7
370
    18
100
AcDbVertex
100
AcDb2dVertex
 10
108.8974730705142
 20
80.73793301648695
 30
0.0
  0
VERTEX
  5
1E0
330
1DE
100
AcDbEntity
  8
Ebene 5
 62
     7
370
    18
100
AcDbVertex
100
AcDb2dVertex
 10
108.8974730705142
 20
65.56021033401093
 30
0.0
  0
SEQEND
  5
1E1
330
1DE
100
AcDbEntity
  8
Ebene 5
370
    18
  0
POLYLINE
  5
1E2
330
168
100
AcDbEntity
  8
Ebene 5
 62
     7
370
    18
100
AcDb2dPolyline
 66
     1
 10
0.0
 20
0.0
 30
0.0
  0
VERTEX
  5
1E3
330
1E2
100
AcDbEntity
  8
Ebene 5
 62
     7
370
    18
100
AcDbVertex
100
AcDb2dVertex
 10
104.8629190861653
 20
65.56124386333832
 30
0.0
  0
VERTEX
  5
1E4
330
1E2
100
AcDbEntity
  8
Ebene 5
 62
     7
370
    18
100
AcDbVertex
100
AcDb2dVertex
 10
108.8974730705142
 20
65.56021033401093
 30
0.0
  0
SEQEND
  5
1E5
330
1E2
100
AcDbEntity
  8
Ebene 5
370
    18
  0
POLYLINE
  5
1E6
330
168
100
AcDbEntity
  8
Ebene 5
 62
     7
370
    18
100
AcDb2dPolyline
 66
     1
 10
0.0
 20
0.0
 30
0.0
  0
VERTEX
  5
1E7
330
1E6
100
AcDbEntity
  8
Ebene 5
 62
     7
370
    18
100
AcDbVertex
100
AcDb2dVertex
 10
108.157466072104
 20
80.73793301648695
 30
0.0
  0
VERTEX
  5
1E8
330
1E6
100
AcDbEntity
  8
Ebene 5
 62
     7
370
    18
100
AcDbVertex
100
AcDb2dVertex
 10
108.157466072104
 20
82.58795051251238
 30
0.0
  0
SEQEND
  5
1E9
330
1E6
100
AcDbEntity
  8
Ebene 5
370
    18
  0
POLYLINE
  5
1EA
330
168
100
AcDbEntity
  8
Ebene 5
 62
     7
370
    18
100
AcDb2dPolyline
 66
     1
 10
0.0
 20
0.0
 30
0.0
  0
VERTEX
  5
1EB
330
1EA
100
AcDbEntity
  8
Ebene 5
 62
     7
370
    18
100
AcDbVertex
100
AcDb2dVertex
 10
96.68184544033365
 20
80.73793301648695
 30
0.0
  0
VERTEX
  5
1EC
330
1EA
100
AcDbEntity
  8
Ebene 5
 62
     7
370
    18
100
AcDbVertex
100
AcDb2dVertex
 10
96.68184544033365
 20
82.58795051251238
 30
0.0
  0
SEQEND
  5
1ED
330
1EA
100
AcDbEntity
  8
Ebene 5
370
    18
  0
POLYLINE
  5
1EE
330
168
100
AcDbEntity
  8
Ebene 5
 62
     7
370
    18
100
AcDb2dPolyline
 66
     1
 10
0.0
 20
0.0
 30
0.0
  0
VERTEX
  5
1EF
330
1EE
100
AcDbEntity
  8
Ebene 5
 62
     7
370
    18
100
AcDbVertex
100
AcDb2dVertex
 10
96.68184544033365
 20
82.58795051251238
 30
0.0
  0
VERTEX
  5
1F0
330
1EE
100
AcDbEntity
  8
Ebene 5
 62
     7
370
    18
100
AcDbVertex
100
AcDb2dVertex
 10
108.157466072104
 20
82.58795051251238
 30
0.0
  0
SEQEND
  5
1F1
330
1EE
100
AcDbEntity
  8
Ebene 5
370
    18
  0
POLYLINE
  5
1F2
330
168
100
AcDbEntity
  8
Ebene 5
 62
     7
370
    18
100
AcDb2dPolyline
 66
     1
 10
0.0
 20
0.0
 30
0.0
  0
VERTEX
  5
1F3
330
1F2
100
AcDbEntity
  8
Ebene 5
 62
     7
370
    18
100
AcDbVertex
100
AcDb2dVertex
 10
100.661622370331
 20
85.3643547956537
 30
0.0
  0
VERTEX
  5
1F4
330
1F2
100
AcDbEntity
  8
Ebene 5
 62
     7
370
    18
100
AcDbVertex
100
AcDb2dVertex
 10
104.1776891421067
 20
85.3643547956537
 30
0.0
  0
SEQEND
  5
1F5
330
1F2
100
AcDbEntity
  8
Ebene 5
370
    18
  0
POLYLINE
  5
1F6
330
168
100
AcDbEntity
  8
Ebene 5
 62
     7
370
    18
100
AcDb2dPolyline
 66
     1
 10
0.0
 20
0.0
 30
0.0
  0
VERTEX
  5
1F7
330
1F6
100
AcDbEntity
  8
Ebene 5
 62
     7
370
    18
100
AcDbVertex
100
AcDb2dVertex
 10
100.0137717369463
 20
83.51399278985248
 30
0.0
  0
VERTEX
  5
1F8
330
1F6
100
AcDbEntity
  8
Ebene 5
 62
     7
370
    18
100
AcDbVertex
100
AcDb2dVertex
 10
104.8257120303793
 20
83.51399278985248
 30
0.0
  0
SEQEND
  5
1F9
330
1F6
100
AcDbEntity
  8
Ebene 5
370
    18
  0
POLYLINE
  5
1FA
330
168
100
AcDbEntity
  8
Ebene 5
 62
     7
370
    18
100
AcDb2dPolyline
 66
     1
 10
0.0
 20
0.0
 30
0.0
  0
VERTEX
  5
1FB
330
1FA
100
AcDbEntity
  8
Ebene 5
 62
     7
370
    18
100
AcDbVertex
100
AcDb2dVertex
 10
100.661622370331
 20
85.3643547956537
 30
0.0
  0
VERTEX
  5
1FC
330
1FA
100
AcDbEntity
  8
Ebene 5
 62
     7
370
    18
100
AcDbVertex
100
AcDb2dVertex
 10
100.661622370331
 20
83.51399278985248
 30
0.0
  0
SEQEND
  5
1FD
330
1FA
100
AcDbEntity
  8
Ebene 5
370
    18
  0
POLYLINE
  5
1FE
330
168
100
AcDbEntity
  8
Ebene 5
 62
     7
370
    18
100
AcDb2dPolyline
 66
     1
 10
0.0
 20
0.0
 30
0.0
  0
VERTEX
  5
1FF
330
1FE
100
AcDbEntity
  8
Ebene 5
 62
     7
370
    18
100
AcDbVertex
100
AcDb2dVertex
 10
100.0137717369463
 20
83.51399278985248
 30
0.0
  0
VERTEX
  5
200
330
1FE
100
AcDbEntity
  8
Ebene 5
 62
     7
370
    18
100
AcDbVertex
100
AcDb2dVertex
 10
100.0137717369463
 20
82.58795051251238
 30
0.0
  0
SEQEND
  5
201
330
1FE
100
AcDbEntity
  8
Ebene 5
370
    18
  0
POLYLINE
  5
202
330
168
100
AcDbEntity
  8
Ebene 5
 62
     7
370
    18
100
AcDb2dPolyline
 66
     1
 10
0.0
 20
0.0
 30
0.0
  0
VERTEX
  5
203
330
202
100
AcDbEntity
  8
Ebene 5
 62
     7
370
    18
100
AcDbVertex
100
AcDb2dVertex
 10
104.8257120303793
 20
83.51399278985248
 30
0.0
  0
VERTEX
  5
204
330
202
100
AcDbEntity
  8
Ebene 5
 62
     7
370
    18
100
AcDbVertex
100
AcDb2dVertex
 10
104.8257120303793
 20
82.58795051251238
 30
0.0
  0
SEQEND
  5
205
330
202
100
AcDbEntity
  8
Ebene 5
370
    18
  0
POLYLINE
  5
206
330
168
100
AcDbEntity
  8
Ebene 5
 62
     7
370
    18
100
AcDb2dPolyline
 66
     1
 10
0.0
 20
0.0
 30
0.0
  0
VERTEX
  5
207
330
206
100
AcDbEntity
  8
Ebene 5
 62
     7
370
    18
100
AcDbVertex
100
AcDb2dVertex
 10
104.1776891421067
 20
85.3643547956537
 30
0.0
  0
VERTEX
  5
208
330
206
100
AcDbEntity
  8
Ebene 5
 62
     7
370
    18
100
AcDbVertex
100
AcDb2dVertex
 10
104.1776891421067
 20
83.51399278985248
 30
0.0
  0
SEQEND
  5
209
330
206
100
AcDbEntity
  8
Ebene 5
370
    18
  0
POLYLINE
  5
20A
330
168
100
AcDbEntity
  8
Ebene 5
 62
     7
370
    18
100
AcDb2dPolyline
 66
     1
 10
0.0
 20
0.0
 30
0.0
  0
VERTEX
  5
20B
330
20A
100
AcDbEntity
  8
Ebene 5
 62
     7
370
    18
100
AcDbVertex
100
AcDb2dVertex
 10
96.68184544033365
 20
63.70984832820971
 30
0.0
  0
VERTEX
  5
20C
330
20A
100
AcDbEntity
  8
Ebene 5
 62
     7
370
    18
100
AcDbVertex
100
AcDb2dVertex
 10
108.157466072104
 20
63.70984832820971
 30
0.0
  0
SEQEND
  5
20D
330
20A
100
AcDbEntity
  8
Ebene 5
370
    18
  0
POLYLINE
  5
20E
330
168
100
AcDbEntity
  8
Ebene 5
 62
     7
370
    18
100
AcDb2dPolyline
 66
     1
 10
0.0
 20
0.0
 30
0.0
  0
VERTEX
  5
20F
330
20E
100
AcDbEntity
  8
Ebene 5
 62
     7
370
    18
100
AcDbVertex
100
AcDb2dVertex
 10
100.0137717369463
 20
62.78483958019699
 30
0.0
  0
VERTEX
  5
210
330
20E
100
AcDbEntity
  8
Ebene 5
 62
     7
370
    18
100
AcDbVertex
100
AcDb2dVertex
 10
104.8257120303793
 20
62.78483958019699
 30
0.0
  0
SEQEND
  5
211
330
20E
100
AcDbEntity
  8
Ebene 5
370
    18
  0
POLYLINE
  5
212
330
168
100
AcDbEntity
  8
Ebene 5
 62
     7
370
    18
100
AcDb2dPolyline
 66
     1
 10
0.0
 20
0.0
 30
0.0
  0
VERTEX
  5
213
330
212
100
AcDbEntity
  8
Ebene 5
 62
     7
370
    18
100
AcDbVertex
100
AcDb2dVertex
 10
100.0137717369463
 20
62.78483958019699
 30
0.0
  0
VERTEX
  5
214
330
212
100
AcDbEntity
  8
Ebene 5
 62
     7
370
    18
100
AcDbVertex
100
AcDb2dVertex
 10
100.0137717369463
 20
63.70984832820971
 30
0.0
  0
SEQEND
  5
215
330
212
100
AcDbEntity
  8
Ebene 5
370
    18
  0
POLYLINE
  5
216
330
168
100
AcDbEntity
  8
Ebene 5
 62
     7
370
    18
100
AcDb2dPolyline
 66
     1
 10
0.0
 20
0.0
 30
0.0
  0
VERTEX
  5
217
330
216
100
AcDbEntity
  8
Ebene 5
 62
     7
370
    18
100
AcDbVertex
100
AcDb2dVertex
 10
104.8257120303793
 20
62.78483958019699
 30
0.0
  0
VERTEX
  5
218
330
216
100
AcDbEntity
  8
Ebene 5
 62
     7
370
    18
100
AcDbVertex
100
AcDb2dVertex
 10
104.8257120303793
 20
63.70984832820971
 30
0.0
  0
SEQEND
  5
219
330
216
100
AcDbEntity
  8
Ebene 5
370
    18
  0
POLYLINE
  5
21A
330
168
100
AcDbEntity
  8
Ebene 5
 62
     7
370
    18
100
AcDb2dPolyline
 66
     1
 10
0.0
 20
0.0
 30
0.0
  0
VERTEX
  5
21B
330
21A
100
AcDbEntity
  8
Ebene 5
 62
     7
370
    18
100
AcDbVertex
100
AcDb2dVertex
 10
108.157466072104
 20
63.70984832820971
 30
0.0
  0
VERTEX
  5
21C
330
21A
100
AcDbEntity
  8
Ebene 5
 62
     7
370
    18
100
AcDbVertex
100
AcDb2dVertex
 10
108.157466072104
 20
65.56021033401093
 30
0.0
  0
SEQEND
  5
21D
330
21A
100
AcDbEntity
  8
Ebene 5
370
    18
  0
POLYLINE
  5
21E
330
168
100
AcDbEntity
  8
Ebene 5
 62
     7
370
    18
100
AcDb2dPolyline
 66
     1
 10
0.0
 20
0.0
 30
0.0
  0
VERTEX
  5
21F
330
21E
100
AcDbEntity
  8
Ebene 5
 62
     7
370
    18
100
AcDbVertex
100
AcDb2dVertex
 10
96.68184544033365
 20
63.70984832820971
 30
0.0
  0
VERTEX
  5
220
330
21E
100
AcDbEntity
  8
Ebene 5
 62
     7
370
    18
100
AcDbVertex
100
AcDb2dVertex
 10
96.68184544033365
 20
65.56124386333832
 30
0.0
  0
SEQEND
  5
221
330
21E
100
AcDbEntity
  8
Ebene 5
370
    18
  0
POLYLINE
  5
222
330
168
100
AcDbEntity
  8
Ebene 5
 62
     7
370
    18
100
AcDb2dPolyline
 66
     1
 10
0.0
 20
0.0
 30
0.0
  0
VERTEX
  5
223
330
222
100
AcDbEntity
  8
Ebene 5
 62
     7
370
    18
100
AcDbVertex
100
AcDb2dVertex
 10
100.6609333507794
 20
60.93378855484418
 30
0.0
  0
VERTEX
  5
224
330
222
100
AcDbEntity
  8
Ebene 5
 62
     7
370
    18
100
AcDbVertex
100
AcDb2dVertex
 10
104.1776891421067
 20
60.93378855484418
 30
0.0
  0
SEQEND
  5
225
330
222
100
AcDbEntity
  8
Ebene 5
370
    18
  0
POLYLINE
  5
226
330
168
100
AcDbEntity
  8
Ebene 5
 62
     7
370
    18
100
AcDb2dPolyline
 66
     1
 10
0.0
 20
0.0
 30
0.0
  0
VERTEX
  5
227
330
226
100
AcDbEntity
  8
Ebene 5
 62
     7
370
    18
100
AcDbVertex
100
AcDb2dVertex
 10
100.6609333507794
 20
62.78483958019699
 30
0.0
  0
VERTEX
  5
228
330
226
100
AcDbEntity
  8
Ebene 5
 62
     7
370
    18
100
AcDbVertex
100
AcDb2dVertex
 10
100.6609333507794
 20
60.93378855484418
 30
0.0
  0
SEQEND
  5
229
330
226
100
AcDbEntity
  8
Ebene 5
370
    18
  0
POLYLINE
  5
22A
330
168
100
AcDbEntity
  8
Ebene 5
 62
     7
370
    18
100
AcDb2dPolyline
 66
     1
 10
0.0
 20
0.0
 30
0.0
  0
VERTEX
  5
22B
330
22A
100
AcDbEntity
  8
Ebene 5
 62
     7
370
    18
100
AcDbVertex
100
AcDb2dVertex
 10
104.1776891421067
 20
62.78483958019699
 30
0.0
  0
VERTEX
  5
22C
330
22A
100
AcDbEntity
  8
Ebene 5
 62
     7
370
    18
100
AcDbVertex
100
AcDb2dVertex
 10
104.1776891421067
 20
60.93378855484418
 30
0.0
  0
SEQEND
  5
22D
330
22A
100
AcDbEntity
  8
Ebene 5
370
    18
  0
ENDBLK
  5
16B
330
168
100
AcDbEntity
  8
0
100
AcDbBlockEnd
  0
ENDSEC
  0
SECTION
  2
ENTITIES
  0
INSERT
  5
3F
330
1F
100
AcDbEntity
  8
Ebene 5
100
AcDbBlockReference
  2
block 2
 10
0.0
 20
0.0
 30
0.0
  0
POLYLINE
  5
76
330
1F
100
AcDbEntity
  8
Ebene 5
 62
     7
370
    18
100
AcDb2dPolyline
 66
     1
 10
0.0
 20
0.0
 30
0.0
  0
VERTEX
  5
77
330
76
100
AcDbEntity
  8
Ebene 5
 62
     7
370
    18
100
AcDbVertex
100
AcDb2dVertex
 10
191.7245133674291
 20
93.97330958302416
 30
0.0
  0
VERTEX
  5
78
330
76
100
AcDbEntity
  8
Ebene 5
 62
     7
370
    18
100
AcDbVertex
100
AcDb2dVertex
 10
191.7245133674291
 20
92.48399382225732
 30
0.0
  0
SEQEND
  5
79
330
76
100
AcDbEntity
  8
Ebene 5
370
    18
  0
POLYLINE
  5
7A
330
1F
100
AcDbEntity
  8
Ebene 5
 62
     7
370
    18
100
AcDb2dPolyline
 66
     1
 10
0.0
 20
0.0
 30
0.0
  0
VERTEX
  5
7B
330
7A
100
AcDbEntity
  8
Ebene 5
 62
     7
370
    18
100
AcDbVertex
100
AcDb2dVertex
 10
194.8388817406265
 20
93.97330958302416
 30
0.0
  0
VERTEX
  5
7C
330
7A
100
AcDbEntity
  8
Ebene 5
 62
     7
370
    18
100
AcDbVertex
100
AcDb2dVertex
 10
194.8388817406265
 20
92.48399382225732
 30
0.0
  0
SEQEND
  5
7D
330
7A
100
AcDbEntity
  8
Ebene 5
370
    18
  0
POLYLINE
  5
7E
330
1F
100
AcDbEntity
  8
Ebene 5
 62
     7
370
    18
100
AcDb2dPolyline
 66
     1
 10
0.0
 20
0.0
 30
0.0
  0
VERTEX
  5
7F
330
7E
100
AcDbEntity
  8
Ebene 5
 62
     7
370
    18
100
AcDbVertex
100
AcDb2dVertex
 10
206.4216449126695
 20
80.73793301648695
 30
0.0
  0
VERTEX
  5
80
330
7E
100
AcDbEntity
  8
Ebene 5
 62
     7
370
    18
100
AcDbVertex
100
AcDb2dVertex
 10
149.0473313613513
 20
80.73793301648695
 30
0.0
  0
SEQEND
  5
81
330
7E
100
AcDbEntity
  8
Ebene 5
370
    18
  0
POLYLINE
  5
82
330
1F
100
AcDbEntity
  8
Ebene 5
 62
     7
370
    18
100
AcDb2dPolyline
 66
     1
 10
0.0
 20
0.0
 30
0.0
  0
VERTEX
  5
83
330
82
100
AcDbEntity
  8
Ebene 5
 62
     7
370
    18
100
AcDbVertex
100
AcDb2dVertex
 10
144.0502170634279
 20
78.7015357317558
 30
0.0
  0
VERTEX
  5
84
330
82
100
AcDbEntity
  8
Ebene 5
 62
     7
370
    18
100
AcDbVertex
100
AcDb2dVertex
 10
144.0502170634279
 20
67.59660761874208
 30
0.0
  0
SEQEND
  5
85
330
82
100
AcDbEntity
  8
Ebene 5
370
    18
  0
POLYLINE
  5
86
330
1F
100
AcDbEntity
  8
Ebene 5
 62
     7
370
    18
100
AcDb2dPolyline
 66
     1
 10
0.0
 20
0.0
 30
0.0
  0
VERTEX
  5
87
330
86
100
AcDbEntity
  8
Ebene 5
 62
     7
370
    18
100
AcDbVertex
100
AcDb2dVertex
 10
144.0502170634279
 20
67.59660761874208
 30
0.0
  0
VERTEX
  5
88
330
86
100
AcDbEntity
  8
Ebene 5
 62
     7
370
    18
100
AcDbVertex
100
AcDb2dVertex
 10
149.0473313613513
 20
65.56124386333832
 30
0.0
  0
SEQEND
  5
89
330
86
100
AcDbEntity
  8
Ebene 5
370
    18
  0
POLYLINE
  5
8A
330
1F
100
AcDbEntity
  8
Ebene 5
 62
     7
370
    18
100
AcDb2dPolyline
 66
     1
 10
0.0
 20
0.0
 30
0.0
  0
VERTEX
  5
8B
330
8A
100
AcDbEntity
  8
Ebene 5
 62
     7
370
    18
100
AcDbVertex
100
AcDb2dVertex
 10
149.0473313613513
 20
80.73793301648695
 30
0.0
  0
VERTEX
  5
8C
330
8A
100
AcDbEntity
  8
Ebene 5
 62
     7
370
    18
100
AcDbVertex
100
AcDb2dVertex
 10
144.0502170634279
 20
78.7015357317558
 30
0.0
  0
SEQEND
  5
8D
330
8A
100
AcDbEntity
  8
Ebene 5
370
    18
  0
POLYLINE
  5
8E
330
1F
100
AcDbEntity
  8
Ebene 5
 62
     7
370
    18
100
AcDb2dPolyline
 66
     1
 10
0.0
 20
0.0
 30
0.0
  0
VERTEX
  5
8F
330
8E
100
AcDbEntity
  8
Ebene 5
 62
     7
370
    18
100
AcDbVertex
100
AcDb2dVertex
 10
206.4216449126695
 20
80.73793301648695
 30
0.0
  0
VERTEX
  5
90
330
8E
100
AcDbEntity
  8
Ebene 5
 62
     7
370
    18
100
AcDbVertex
100
AcDb2dVertex
 10
211.4194482301445
 20
78.7015357317558
 30
0.0
  0
SEQEND
  5
91
330
8E
100
AcDbEntity
  8
Ebene 5
370
    18
  0
SPLINE
  5
92
330
1F
100
AcDbEntity
  8
Ebene 5
 62
     7
370
    18
100
AcDbSpline
210
0.0
220
0.0
230
1.0
 70
    11
 71
     3
 72
    17
 73
    13
 74
     0
 42
0.0000000001
 43
0.0000000001
 40
0.0
 40
0.0
 40
0.0
 40
0.0
 40
1.0
 40
1.0
 40
1.0
 40
2.0
 40
2.0
 40
2.0
 40
3.0
 40
3.0
 40
3.0
 40
4.0
 40
4.0
 40
4.0
 40
4.0
 10
147.9366318441845
 20
76.66548295680043
 30
0.0
 10
147.9366318441845
 20
77.17776899340934
 30
0.0
 10
147.5225310936775
 20
77.59152523414053
 30
0.0
 10
147.0109340766201
 20
77.59152523414053
 30
0.0
 10
146.5000260791144
 20
77.59152523414053
 30
0.0
 10
146.0848917992801
 20
77.17776899340934
 30
0.0
 10
146.0848917992801
 20
76.66548295680043
 30
0.0
 10
146.0848917992801
 20
76.1552639788463
 30
0.0
 10
146.5000260791144
 20
75.74116322833932
 30
0.0
 10
147.0109340766201
 20
75.74116322833932
 30
0.0
 10
147.5225310936775
 20
75.74116322833932
 30
0.0
 10
147.9366318441845
 20
76.1552639788463
 30
0.0
 10
147.9366318441845
 20
76.66548295680043
 30
0.0
  0
SPLINE
  5
93
330
1F
100
AcDbEntity
  8
Ebene 5
 62
     7
370
    18
100
AcDbSpline
210
0.0
220
0.0
230
1.0
 70
    11
 71
     3
 72
    17
 73
    13
 74
     0
 42
0.0000000001
 43
0.0000000001
 40
0.0
 40
0.0
 40
0.0
 40
0.0
 40
1.0
 40
1.0
 40
1.0
 40
2.0
 40
2.0
 40
2.0
 40
3.0
 40
3.0
 40
3.0
 40
4.0
 40
4.0
 40
4.0
 40
4.0
 10
147.9366318441845
 20
69.63197137414585
 30
0.0
 10
147.9366318441845
 20
70.14425741075475
 30
0.0
 10
147.5225310936775
 20
70.55835816126175
 30
0.0
 10
147.0109340766201
 20
70.55835816126175
 30
0.0
 10
146.5000260791144
 20
70.55835816126175
 30
0.0
 10
146.0862698383832
 20
70.14425741075475
 30
0.0
 10
146.0862698383832
 20
69.63197137414585
 30
0.0
 10
146.0862698383832
 20
69.12209690596752
 30
0.0
 10
146.5000260791144
 20
68.70765164568473
 30
0.0
 10
147.0109340766201
 20
68.70765164568473
 30
0.0
 10
147.5225310936775
 20
68.70765164568473
 30
0.0
 10
147.9366318441845
 20
69.12209690596752
 30
0.0
 10
147.9366318441845
 20
69.63197137414585
 30
0.0
  0
POLYLINE
  5
94
330
1F
100
AcDbEntity
  8
Ebene 5
 62
     7
370
    18
100
AcDb2dPolyline
 66
     1
 10
0.0
 20
0.0
 30
0.0
  0
VERTEX
  5
95
330
94
100
AcDbEntity
  8
Ebene 5
 62
     7
370
    18
100
AcDbVertex
100
AcDb2dVertex
 10
206.4216449126695
 20
65.56124386333832
 30
0.0
  0
VERTEX
  5
96
330
94
100
AcDbEntity
  8
Ebene 5
 62
     7
370
    18
100
AcDbVertex
100
AcDb2dVertex
 10
149.0473313613513
 20
65.56124386333832
 30
0.0
  0
SEQEND
  5
97
330
94
100
AcDbEntity
  8
Ebene 5
370
    18
  0
POLYLINE
  5
98
330
1F
100
AcDbEntity
  8
Ebene 5
 62
     7
370
    18
100
AcDb2dPolyline
 66
     1
 10
0.0
 20
0.0
 30
0.0
  0
VERTEX
  5
99
330
98
100
AcDbEntity
  8
Ebene 5
 62
     7
370
    18
100
AcDbVertex
100
AcDb2dVertex
 10
211.4194482301445
 20
67.59798565784527
 30
0.0
  0
VERTEX
  5
9A
330
98
100
AcDbEntity
  8
Ebene 5
 62
     7
370
    18
100
AcDbVertex
100
AcDb2dVertex
 10
211.4194482301445
 20
78.7015357317558
 30
0.0
  0
SEQEND
  5
9B
330
98
100
AcDbEntity
  8
Ebene 5
370
    18
  0
POLYLINE
  5
9C
330
1F
100
AcDbEntity
  8
Ebene 5
 62
     7
370
    18
100
AcDb2dPolyline
 66
     1
 10
0.0
 20
0.0
 30
0.0
  0
VERTEX
  5
9D
330
9C
100
AcDbEntity
  8
Ebene 5
 62
     7
370
    18
100
AcDbVertex
100
AcDb2dVertex
 10
206.4216449126695
 20
65.56158837311412
 30
0.0
  0
VERTEX
  5
9E
330
9C
100
AcDbEntity
  8
Ebene 5
 62
     7
370
    18
100
AcDbVertex
100
AcDb2dVertex
 10
211.4194482301445
 20
67.59798565784527
 30
0.0
  0
SEQEND
  5
9F
330
9C
100
AcDbEntity
  8
Ebene 5
370
    18
  0
SPLINE
  5
A0
330
1F
100
AcDbEntity
  8
Ebene 5
 62
     7
370
    18
100
AcDbSpline
210
0.0
220
0.0
230
1.0
 70
    11
 71
     3
 72
    17
 73
    13
 74
     0
 42
0.0000000001
 43
0.0000000001
 40
0.0
 40
0.0
 40
0.0
 40
0.0
 40
1.0
 40
1.0
 40
1.0
 40
2.0
 40
2.0
 40
2.0
 40
3.0
 40
3.0
 40
3.0
 40
4.0
 40
4.0
 40
4.0
 40
4.0
 10
209.3837399649649
 20
69.63266039369745
 30
0.0
 10
209.3837399649649
 20
70.14425741075475
 30
0.0
 10
208.9692947046821
 20
70.55835816126175
 30
0.0
 10
208.4580421974006
 20
70.55835816126175
 30
0.0
 10
207.9471341998949
 20
70.55835816126175
 30
0.0
 10
207.5326889396121
 20
70.14425741075475
 30
0.0
 10
207.5326889396121
 20
69.63266039369745
 30
0.0
 10
207.5326889396121
 20
69.12209690596752
 30
0.0
 10
207.9471341998949
 20
68.70765164568473
 30
0.0
 10
208.4580421974006
 20
68.70765164568473
 30
0.0
 10
208.9692947046821
 20
68.70765164568473
 30
0.0
 10
209.3837399649649
 20
69.12209690596752
 30
0.0
 10
209.3837399649649
 20
69.63266039369745
 30
0.0
  0
SPLINE
  5
A1
330
1F
100
AcDbEntity
  8
Ebene 5
 62
     7
370
    18
100
AcDbSpline
210
0.0
220
0.0
230
1.0
 70
    11
 71
     3
 72
    17
 73
    13
 74
     0
 42
0.0000000001
 43
0.0000000001
 40
0.0
 40
0.0
 40
0.0
 40
0.0
 40
1.0
 40
1.0
 40
1.0
 40
2.0
 40
2.0
 40
2.0
 40
3.0
 40
3.0
 40
3.0
 40
4.0
 40
4.0
 40
4.0
 40
4.0
 10
209.3837399649649
 20
76.66617197635203
 30
0.0
 10
209.3837399649649
 20
77.17776899340934
 30
0.0
 10
208.9696392144579
 20
77.59152523414053
 30
0.0
 10
208.4580421974006
 20
77.59152523414053
 30
0.0
 10
207.9471341998949
 20
77.59152523414053
 30
0.0
 10
207.5326889396121
 20
77.17776899340934
 30
0.0
 10
207.5326889396121
 20
76.66617197635203
 30
0.0
 10
207.5326889396121
 20
76.1552639788463
 30
0.0
 10
207.9471341998949
 20
75.74116322833932
 30
0.0
 10
208.4580421974006
 20
75.74116322833932
 30
0.0
 10
208.9696392144579
 20
75.74116322833932
 30
0.0
 10
209.3837399649649
 20
76.1552639788463
 30
0.0
 10
209.3837399649649
 20
76.66617197635203
 30
0.0
  0
POLYLINE
  5
A2
330
1F
100
AcDbEntity
  8
Ebene 5
 62
     7
370
    18
100
AcDb2dPolyline
 66
     1
 10
0.0
 20
0.0
 30
0.0
  0
VERTEX
  5
A3
330
A2
100
AcDbEntity
  8
Ebene 5
 62
     7
370
    18
100
AcDbVertex
100
AcDb2dVertex
 10
150.5276898679474
 20
80.73793301648695
 30
0.0
  0
VERTEX
  5
A4
330
A2
100
AcDbEntity
  8
Ebene 5
 62
     7
370
    18
100
AcDbVertex
100
AcDb2dVertex
 10
150.5276898679474
 20
65.56124386333832
 30
0.0
  0
SEQEND
  5
A5
330
A2
100
AcDbEntity
  8
Ebene 5
370
    18
  0
POLYLINE
  5
A6
330
1F
100
AcDbEntity
  8
Ebene 5
 62
     7
370
    18
100
AcDb2dPolyline
 66
     1
 10
0.0
 20
0.0
 30
0.0
  0
VERTEX
  5
A7
330
A6
100
AcDbEntity
  8
Ebene 5
 62
     7
370
    18
100
AcDbVertex
100
AcDb2dVertex
 10
204.9412864060733
 20
65.56158837311412
 30
0.0
  0
VERTEX
  5
A8
330
A6
100
AcDbEntity
  8
Ebene 5
 62
     7
370
    18
100
AcDbVertex
100
AcDb2dVertex
 10
204.9412864060733
 20
80.73793301648695
 30
0.0
  0
SEQEND
  5
A9
330
A6
100
AcDbEntity
  8
Ebene 5
370
    18
  0
POLYLINE
  5
AA
330
1F
100
AcDbEntity
  8
Ebene 5
 62
     7
370
    18
100
AcDb2dPolyline
 66
     1
 10
0.0
 20
0.0
 30
0.0
  0
VERTEX
  5
AB
330
AA
100
AcDbEntity
  8
Ebene 5
 62
     7
370
    18
100
AcDbVertex
100
AcDb2dVertex
 10
150.5276898679474
 20
80.73793301648695
 30
0.0
  0
VERTEX
  5
AC
330
AA
100
AcDbEntity
  8
Ebene 5
 62
     7
370
    18
100
AcDbVertex
100
AcDb2dVertex
 10
177.7346603918983
 20
80.73793301648695
 30
0.0
  0
SEQEND
  5
AD
330
AA
100
AcDbEntity
  8
Ebene 5
370
    18
  0
POLYLINE
  5
AE
330
1F
100
AcDbEntity
  8
Ebene 5
 62
     7
370
    18
100
AcDb2dPolyline
 66
     1
 10
0.0
 20
0.0
 30
0.0
  0
VERTEX
  5
AF
330
AE
100
AcDbEntity
  8
Ebene 5
 62
     7
370
    18
100
AcDbVertex
100
AcDb2dVertex
 10
171.9975390955647
 20
80.73793301648695
 30
0.0
  0
VERTEX
  5
B0
330
AE
100
AcDbEntity
  8
Ebene 5
 62
     7
370
    18
100
AcDbVertex
100
AcDb2dVertex
 10
171.9975390955647
 20
82.58795051251238
 30
0.0
  0
SEQEND
  5
B1
330
AE
100
AcDbEntity
  8
Ebene 5
370
    18
  0
POLYLINE
  5
B2
330
1F
100
AcDbEntity
  8
Ebene 5
 62
     7
370
    18
100
AcDb2dPolyline
 66
     1
 10
0.0
 20
0.0
 30
0.0
  0
VERTEX
  5
B3
330
B2
100
AcDbEntity
  8
Ebene 5
 62
     7
370
    18
100
AcDbVertex
100
AcDb2dVertex
 10
183.4714371784561
 20
80.73793301648695
 30
0.0
  0
VERTEX
  5
B4
330
B2
100
AcDbEntity
  8
Ebene 5
 62
     7
370
    18
100
AcDbVertex
100
AcDb2dVertex
 10
183.4714371784561
 20
82.58795051251238
 30
0.0
  0
SEQEND
  5
B5
330
B2
100
AcDbEntity
  8
Ebene 5
370
    18
  0
POLYLINE
  5
B6
330
1F
100
AcDbEntity
  8
Ebene 5
 62
     7
370
    18
100
AcDb2dPolyline
 66
     1
 10
0.0
 20
0.0
 30
0.0
  0
VERTEX
  5
B7
330
B6
100
AcDbEntity
  8
Ebene 5
 62
     7
370
    18
100
AcDbVertex
100
AcDb2dVertex
 10
183.4714371784561
 20
82.58795051251238
 30
0.0
  0
VERTEX
  5
B8
330
B6
100
AcDbEntity
  8
Ebene 5
 62
     7
370
    18
100
AcDbVertex
100
AcDb2dVertex
 10
171.9975390955647
 20
82.58795051251238
 30
0.0
  0
SEQEND
  5
B9
330
B6
100
AcDbEntity
  8
Ebene 5
370
    18
  0
POLYLINE
  5
BA
330
1F
100
AcDbEntity
  8
Ebene 5
 62
     7
370
    18
100
AcDb2dPolyline
 66
     1
 10
0.0
 20
0.0
 30
0.0
  0
VERTEX
  5
BB
330
BA
100
AcDbEntity
  8
Ebene 5
 62
     7
370
    18
100
AcDbVertex
100
AcDb2dVertex
 10
180.1400276465071
 20
83.51399278985248
 30
0.0
  0
VERTEX
  5
BC
330
BA
100
AcDbEntity
  8
Ebene 5
 62
     7
370
    18
100
AcDbVertex
100
AcDb2dVertex
 10
175.3289486275136
 20
83.51399278985248
 30
0.0
  0
SEQEND
  5
BD
330
BA
100
AcDbEntity
  8
Ebene 5
370
    18
  0
POLYLINE
  5
BE
330
1F
100
AcDbEntity
  8
Ebene 5
 62
     7
370
    18
100
AcDb2dPolyline
 66
     1
 10
0.0
 20
0.0
 30
0.0
  0
VERTEX
  5
BF
330
BE
100
AcDbEntity
  8
Ebene 5
 62
     7
370
    18
100
AcDbVertex
100
AcDb2dVertex
 10
180.1400276465071
 20
83.51399278985248
 30
0.0
  0
VERTEX
  5
C0
330
BE
100
AcDbEntity
  8
Ebene 5
 62
     7
370
    18
100
AcDbVertex
100
AcDb2dVertex
 10
180.1400276465071
 20
82.58795051251238
 30
0.0
  0
SEQEND
  5
C1
330
BE
100
AcDbEntity
  8
Ebene 5
370
    18
  0
POLYLINE
  5
C2
330
1F
100
AcDbEntity
  8
Ebene 5
 62
     7
370
    18
100
AcDb2dPolyline
 66
     1
 10
0.0
 20
0.0
 30
0.0
  0
VERTEX
  5
C3
330
C2
100
AcDbEntity
  8
Ebene 5
 62
     7
370
    18
100
AcDbVertex
100
AcDb2dVertex
 10
175.3289486275136
 20
83.51399278985248
 30
0.0
  0
VERTEX
  5
C4
330
C2
100
AcDbEntity
  8
Ebene 5
 62
     7
370
    18
100
AcDbVertex
100
AcDb2dVertex
 10
175.3289486275136
 20
82.58795051251238
 30
0.0
  0
SEQEND
  5
C5
330
C2
100
AcDbEntity
  8
Ebene 5
370
    18
  0
POLYLINE
  5
C6
330
1F
100
AcDbEntity
  8
Ebene 5
 62
     7
370
    18
100
AcDb2dPolyline
 66
     1
 10
0.0
 20
0.0
 30
0.0
  0
VERTEX
  5
C7
330
C6
100
AcDbEntity
  8
Ebene 5
 62
     7
370
    18
100
AcDbVertex
100
AcDb2dVertex
 10
183.4714371784561
 20
63.70984832820971
 30
0.0
  0
VERTEX
  5
C8
330
C6
100
AcDbEntity
  8
Ebene 5
 62
     7
370
    18
100
AcDbVertex
100
AcDb2dVertex
 10
171.9975390955647
 20
63.70984832820971
 30
0.0
  0
SEQEND
  5
C9
330
C6
100
AcDbEntity
  8
Ebene 5
370
    18
  0
POLYLINE
  5
CA
330
1F
100
AcDbEntity
  8
Ebene 5
 62
     7
370
    18
100
AcDb2dPolyline
 66
     1
 10
0.0
 20
0.0
 30
0.0
  0
VERTEX
  5
CB
330
CA
100
AcDbEntity
  8
Ebene 5
 62
     7
370
    18
100
AcDbVertex
100
AcDb2dVertex
 10
180.1400276465071
 20
62.78483958019699
 30
0.0
  0
VERTEX
  5
CC
330
CA
100
AcDbEntity
  8
Ebene 5
 62
     7
370
    18
100
AcDbVertex
100
AcDb2dVertex
 10
175.3289486275136
 20
62.78483958019699
 30
0.0
  0
SEQEND
  5
CD
330
CA
100
AcDbEntity
  8
Ebene 5
370
    18
  0
POLYLINE
  5
CE
330
1F
100
AcDbEntity
  8
Ebene 5
 62
     7
370
    18
100
AcDb2dPolyline
 66
     1
 10
0.0
 20
0.0
 30
0.0
  0
VERTEX
  5
CF
330
CE
100
AcDbEntity
  8
Ebene 5
 62
     7
370
    18
100
AcDbVertex
100
AcDb2dVertex
 10
179.4923492680103
 20
60.93378855484418
 30
0.0
  0
VERTEX
  5
D0
330
CE
100
AcDbEntity
  8
Ebene 5
 62
     7
370
    18
100
AcDbVertex
100
AcDb2dVertex
 10
179.4923492680103
 20
62.78483958019699
 30
0.0
  0
SEQEND
  5
D1
330
CE
100
AcDbEntity
  8
Ebene 5
370
    18
  0
POLYLINE
  5
D2
330
1F
100
AcDbEntity
  8
Ebene 5
 62
     7
370
    18
100
AcDb2dPolyline
 66
     1
 10
0.0
 20
0.0
 30
0.0
  0
VERTEX
  5
D3
330
D2
100
AcDbEntity
  8
Ebene 5
 62
     7
370
    18
100
AcDbVertex
100
AcDb2dVertex
 10
180.1400276465071
 20
62.78483958019699
 30
0.0
  0
VERTEX
  5
D4
330
D2
100
AcDbEntity
  8
Ebene 5
 62
     7
370
    18
100
AcDbVertex
100
AcDb2dVertex
 10
180.1400276465071
 20
63.70984832820971
 30
0.0
  0
SEQEND
  5
D5
330
D2
100
AcDbEntity
  8
Ebene 5
370
    18
  0
POLYLINE
  5
D6
330
1F
100
AcDbEntity
  8
Ebene 5
 62
     7
370
    18
100
AcDb2dPolyline
 66
     1
 10
0.0
 20
0.0
 30
0.0
  0
VERTEX
  5
D7
330
D6
100
AcDbEntity
  8
Ebene 5
 62
     7
370
    18
100
AcDbVertex
100
AcDb2dVertex
 10
175.3289486275136
 20
62.78483958019699
 30
0.0
  0
VERTEX
  5
D8
330
D6
100
AcDbEntity
  8
Ebene 5
 62
     7
370
    18
100
AcDbVertex
100
AcDb2dVertex
 10
175.3289486275136
 20
63.70984832820971
 30
0.0
  0
SEQEND
  5
D9
330
D6
100
AcDbEntity
  8
Ebene 5
370
    18
  0
POLYLINE
  5
DA
330
1F
100
AcDbEntity
  8
Ebene 5
 62
     7
370
    18
100
AcDb2dPolyline
 66
     1
 10
0.0
 20
0.0
 30
0.0
  0
VERTEX
  5
DB
330
DA
100
AcDbEntity
  8
Ebene 5
 62
     7
370
    18
100
AcDbVertex
100
AcDb2dVertex
 10
175.9766270060104
 20
62.38176314251547
 30
0.0
  0
VERTEX
  5
DC
330
DA
100
AcDbEntity
  8
Ebene 5
 62
     7
370
    18
100
AcDbVertex
100
AcDb2dVertex
 10
175.9766270060104
 20
62.78483958019699
 30
0.0
  0
SEQEND
  5
DD
330
DA
100
AcDbEntity
  8
Ebene 5
370
    18
  0
POLYLINE
  5
DE
330
1F
100
AcDbEntity
  8
Ebene 5
 62
     7
370
    18
100
AcDb2dPolyline
 66
     1
 10
0.0
 20
0.0
 30
0.0
  0
VERTEX
  5
DF
330
DE
100
AcDbEntity
  8
Ebene 5
 62
     7
370
    18
100
AcDbVertex
100
AcDb2dVertex
 10
171.9975390955647
 20
63.70984832820971
 30
0.0
  0
VERTEX
  5
E0
330
DE
100
AcDbEntity
  8
Ebene 5
 62
     7
370
    18
100
AcDbVertex
100
AcDb2dVertex
 10
171.9975390955647
 20
65.66976444271411
 30
0.0
  0
SEQEND
  5
E1
330
DE
100
AcDbEntity
  8
Ebene 5
370
    18
  0
POLYLINE
  5
E2
330
1F
100
AcDbEntity
  8
Ebene 5
 62
     7
370
    18
100
AcDb2dPolyline
 66
     1
 10
0.0
 20
0.0
 30
0.0
  0
VERTEX
  5
E3
330
E2
100
AcDbEntity
  8
Ebene 5
 62
     7
370
    18
100
AcDbVertex
100
AcDb2dVertex
 10
183.4714371784561
 20
63.70984832820971
 30
0.0
  0
VERTEX
  5
E4
330
E2
100
AcDbEntity
  8
Ebene 5
 62
     7
370
    18
100
AcDbVertex
100
AcDb2dVertex
 10
183.4714371784561
 20
65.56124386333832
 30
0.0
  0
SEQEND
  5
E5
330
E2
100
AcDbEntity
  8
Ebene 5
370
    18
  0
POLYLINE
  5
E6
330
1F
100
AcDbEntity
  8
Ebene 5
 62
     7
370
    18
100
AcDb2dPolyline
 66
     1
 10
0.0
 20
0.0
 30
0.0
  0
VERTEX
  5
E7
330
E6
100
AcDbEntity
  8
Ebene 5
 62
     7
370
    18
100
AcDbVertex
100
AcDb2dVertex
 10
204.9412864060733
 20
65.56158837311412
 30
0.0
  0
VERTEX
  5
E8
330
E6
100
AcDbEntity
  8
Ebene 5
 62
     7
370
    18
100
AcDbVertex
100
AcDb2dVertex
 10
204.9412864060733
 20
73.14941618502473
 30
0.0
  0
SEQEND
  5
E9
330
E6
100
AcDbEntity
  8
Ebene 5
370
    18
  0
POLYLINE
  5
EA
330
1F
100
AcDbEntity
  8
Ebene 5
 62
     7
370
    18
100
AcDb2dPolyline
 66
     1
 10
0.0
 20
0.0
 30
0.0
  0
VERTEX
  5
EB
330
EA
100
AcDbEntity
  8
Ebene 5
 62
     7
370
    18
100
AcDbVertex
100
AcDb2dVertex
 10
204.9412864060733
 20
70.92870617024263
 30
0.0
  0
VERTEX
  5
EC
330
EA
100
AcDbEntity
  8
Ebene 5
 62
     7
370
    18
100
AcDbVertex
100
AcDb2dVertex
 10
150.5276898679474
 20
70.92870617024263
 30
0.0
  0
SEQEND
  5
ED
330
EA
100
AcDbEntity
  8
Ebene 5
370
    18
  0
POLYLINE
  5
EE
330
1F
100
AcDbEntity
  8
Ebene 5
 62
     7
370
    18
100
AcDb2dPolyline
 66
     1
 10
0.0
 20
0.0
 30
0.0
  0
VERTEX
  5
EF
330
EE
100
AcDbEntity
  8
Ebene 5
 62
     7
370
    18
100
AcDbVertex
100
AcDb2dVertex
 10
204.9412864060733
 20
75.37081521935843
 30
0.0
  0
VERTEX
  5
F0
330
EE
100
AcDbEntity
  8
Ebene 5
 62
     7
370
    18
100
AcDbVertex
100
AcDb2dVertex
 10
150.5276898679474
 20
75.37081521935843
 30
0.0
  0
SEQEND
  5
F1
330
EE
100
AcDbEntity
  8
Ebene 5
370
    18
  0
POLYLINE
  5
F2
330
1F
100
AcDbEntity
  8
Ebene 5
 62
     7
370
    18
100
AcDb2dPolyline
 66
     1
 10
0.0
 20
0.0
 30
0.0
  0
VERTEX
  5
F3
330
F2
100
AcDbEntity
  8
Ebene 5
 62
     7
370
    18
100
AcDbVertex
100
AcDb2dVertex
 10
189.5795955033222
 20
93.97330958302416
 30
0.0
  0
VERTEX
  5
F4
330
F2
100
AcDbEntity
  8
Ebene 5
 62
     7
370
    18
100
AcDbVertex
100
AcDb2dVertex
 10
196.9834550949576
 20
93.97330958302416
 30
0.0
  0
SEQEND
  5
F5
330
F2
100
AcDbEntity
  8
Ebene 5
370
    18
  0
SPLINE
  5
F6
330
1F
100
AcDbEntity
  8
Ebene 5
 62
     7
370
    18
100
AcDbSpline
210
0.0
220
0.0
230
1.0
 70
     8
 71
     3
 72
     8
 73
     4
 74
     0
 42
0.0000000001
 43
0.0000000001
 40
0.0
 40
0.0
 40
0.0
 40
0.0
 40
1.0
 40
1.0
 40
1.0
 40
1.0
 10
190.5125279761782
 20
98.57940528541894
 30
0.0
 10
189.9971413515871
 20
98.57940528541894
 30
0.0
 10
189.5795955033222
 20
98.16151492737819
 30
0.0
 10
189.5795955033222
 20
97.64647281256292
 30
0.0
  0
POLYLINE
  5
F7
330
1F
100
AcDbEntity
  8
Ebene 5
 62
     7
370
    18
100
AcDb2dPolyline
 66
     1
 10
0.0
 20
0.0
 30
0.0
  0
VERTEX
  5
F8
330
F7
100
AcDbEntity
  8
Ebene 5
 62
     7
370
    18
100
AcDbVertex
100
AcDb2dVertex
 10
189.5795955033222
 20
93.97330958302416
 30
0.0
  0
VERTEX
  5
F9
330
F7
100
AcDbEntity
  8
Ebene 5
 62
     7
370
    18
100
AcDbVertex
100
AcDb2dVertex
 10
189.5795955033222
 20
97.64647281256292
 30
0.0
  0
SEQEND
  5
FA
330
F7
100
AcDbEntity
  8
Ebene 5
370
    18
  0
SPLINE
  5
FB
330
1F
100
AcDbEntity
  8
Ebene 5
 62
     7
370
    18
100
AcDbSpline
210
0.0
220
0.0
230
1.0
 70
     8
 71
     3
 72
     8
 73
     4
 74
     0
 42
0.0000000001
 43
0.0000000001
 40
0.0
 40
0.0
 40
0.0
 40
0.0
 40
1.0
 40
1.0
 40
1.0
 40
1.0
 10
196.9834550949576
 20
97.64647281256292
 30
0.0
 10
196.9834550949576
 20
98.16151492737819
 30
0.0
 10
196.5659092466927
 20
98.57940528541894
 30
0.0
 10
196.0508671318774
 20
98.57940528541894
 30
0.0
  0
POLYLINE
  5
FC
330
1F
100
AcDbEntity
  8
Ebene 5
 62
     7
370
    18
100
AcDb2dPolyline
 66
     1
 10
0.0
 20
0.0
 30
0.0
  0
VERTEX
  5
FD
330
FC
100
AcDbEntity
  8
Ebene 5
 62
     7
370
    18
100
AcDbVertex
100
AcDb2dVertex
 10
190.5125279761782
 20
98.57940528541894
 30
0.0
  0
VERTEX
  5
FE
330
FC
100
AcDbEntity
  8
Ebene 5
 62
     7
370
    18
100
AcDbVertex
100
AcDb2dVertex
 10
196.0508671318774
 20
98.57940528541894
 30
0.0
  0
SEQEND
  5
FF
330
FC
100
AcDbEntity
  8
Ebene 5
370
    18
  0
POLYLINE
  5
100
330
1F
100
AcDbEntity
  8
Ebene 5
 62
     7
370
    18
100
AcDb2dPolyline
 66
     1
 10
0.0
 20
0.0
 30
0.0
  0
VERTEX
  5
101
330
100
100
AcDbEntity
  8
Ebene 5
 62
     7
370
    18
100
AcDbVertex
100
AcDb2dVertex
 10
196.9834550949576
 20
93.97330958302416
 30
0.0
  0
VERTEX
  5
102
330
100
100
AcDbEntity
  8
Ebene 5
 62
     7
370
    18
100
AcDbVertex
100
AcDb2dVertex
 10
196.9834550949576
 20
97.64647281256292
 30
0.0
  0
SEQEND
  5
103
330
100
100
AcDbEntity
  8
Ebene 5
370
    18
  0
POLYLINE
  5
104
330
1F
100
AcDbEntity
  8
Ebene 5
 62
     7
370
    18
100
AcDb2dPolyline
 66
     1
 10
0.0
 20
0.0
 30
0.0
  0
VERTEX
  5
105
330
104
100
AcDbEntity
  8
Ebene 5
 62
     7
370
    18
100
AcDbVertex
100
AcDb2dVertex
 10
189.1744520069859
 20
90.6336318164561
 30
0.0
  0
VERTEX
  5
106
330
104
100
AcDbEntity
  8
Ebene 5
 62
     7
370
    18
100
AcDbVertex
100
AcDb2dVertex
 10
189.1744520069859
 20
92.48399382225732
 30
0.0
  0
SEQEND
  5
107
330
104
100
AcDbEntity
  8
Ebene 5
370
    18
  0
POLYLINE
  5
108
330
1F
100
AcDbEntity
  8
Ebene 5
 62
     7
370
    18
100
AcDb2dPolyline
 66
     1
 10
0.0
 20
0.0
 30
0.0
  0
VERTEX
  5
109
330
108
100
AcDbEntity
  8
Ebene 5
 62
     7
370
    18
100
AcDbVertex
100
AcDb2dVertex
 10
173.4406905463748
 20
83.50813612366395
 30
0.0
  0
VERTEX
  5
10A
330
108
100
AcDbEntity
  8
Ebene 5
 62
     7
370
    18
100
AcDbVertex
100
AcDb2dVertex
 10
173.4406905463748
 20
85.3643547956537
 30
0.0
  0
SEQEND
  5
10B
330
108
100
AcDbEntity
  8
Ebene 5
370
    18
  0
POLYLINE
  5
10C
330
1F
100
AcDbEntity
  8
Ebene 5
 62
     7
370
    18
100
AcDb2dPolyline
 66
     1
 10
0.0
 20
0.0
 30
0.0
  0
VERTEX
  5
10D
330
10C
100
AcDbEntity
  8
Ebene 5
 62
     7
370
    18
100
AcDbVertex
100
AcDb2dVertex
 10
197.7617026784812
 20
92.48399382225732
 30
0.0
  0
VERTEX
  5
10E
330
10C
100
AcDbEntity
  8
Ebene 5
 62
     7
370
    18
100
AcDbVertex
100
AcDb2dVertex
 10
197.7617026784812
 20
90.6336318164561
 30
0.0
  0
SEQEND
  5
10F
330
10C
100
AcDbEntity
  8
Ebene 5
370
    18
  0
POLYLINE
  5
110
330
1F
100
AcDbEntity
  8
Ebene 5
 62
     7
370
    18
100
AcDb2dPolyline
 66
     1
 10
0.0
 20
0.0
 30
0.0
  0
VERTEX
  5
111
330
110
100
AcDbEntity
  8
Ebene 5
 62
     7
370
    18
100
AcDbVertex
100
AcDb2dVertex
 10
189.1744520069859
 20
90.6336318164561
 30
0.0
  0
VERTEX
  5
112
330
110
100
AcDbEntity
  8
Ebene 5
 62
     7
370
    18
100
AcDbVertex
100
AcDb2dVertex
 10
197.7617026784812
 20
90.6336318164561
 30
0.0
  0
SEQEND
  5
113
330
110
100
AcDbEntity
  8
Ebene 5
370
    18
  0
SPLINE
  5
114
330
1F
100
AcDbEntity
  8
Ebene 5
 62
     7
370
    18
100
AcDbSpline
210
0.0
220
0.0
230
1.0
 70
     8
 71
     3
 72
     8
 73
     4
 74
     0
 42
0.0000000001
 43
0.0000000001
 40
0.0
 40
0.0
 40
0.0
 40
0.0
 40
1.0
 40
1.0
 40
1.0
 40
1.0
 10
174.794269455478
 20
85.3643547956537
 30
0.0
 10
175.3978505826729
 20
85.3643547956537
 30
0.0
 10
175.8870544643034
 20
85.85355867728425
 30
0.0
 10
175.8870544643034
 20
86.45782882403074
 30
0.0
  0
POLYLINE
  5
115
330
1F
100
AcDbEntity
  8
Ebene 5
 62
     7
370
    18
100
AcDb2dPolyline
 66
     1
 10
0.0
 20
0.0
 30
0.0
  0
VERTEX
  5
116
330
115
100
AcDbEntity
  8
Ebene 5
 62
     7
370
    18
100
AcDbVertex
100
AcDb2dVertex
 10
173.4406905463748
 20
85.3643547956537
 30
0.0
  0
VERTEX
  5
117
330
115
100
AcDbEntity
  8
Ebene 5
 62
     7
370
    18
100
AcDbVertex
100
AcDb2dVertex
 10
174.794269455478
 20
85.3643547956537
 30
0.0
  0
SEQEND
  5
118
330
115
100
AcDbEntity
  8
Ebene 5
370
    18
  0
POLYLINE
  5
119
330
1F
100
AcDbEntity
  8
Ebene 5
 62
     7
370
    18
100
AcDb2dPolyline
 66
     1
 10
0.0
 20
0.0
 30
0.0
  0
VERTEX
  5
11A
330
119
100
AcDbEntity
  8
Ebene 5
 62
     7
370
    18
100
AcDbVertex
100
AcDb2dVertex
 10
175.8870544643034
 20
86.45782882403074
 30
0.0
  0
VERTEX
  5
11B
330
119
100
AcDbEntity
  8
Ebene 5
 62
     7
370
    18
100
AcDbVertex
100
AcDb2dVertex
 10
175.8870544643034
 20
88.23136514982941
 30
0.0
  0
SEQEND
  5
11C
330
119
100
AcDbEntity
  8
Ebene 5
370
    18
  0
SPLINE
  5
11D
330
1F
100
AcDbEntity
  8
Ebene 5
 62
     7
370
    18
100
AcDbSpline
210
0.0
220
0.0
230
1.0
 70
     8
 71
     3
 72
     8
 73
     4
 74
     0
 42
0.0000000001
 43
0.0000000001
 40
0.0
 40
0.0
 40
0.0
 40
0.0
 40
1.0
 40
1.0
 40
1.0
 40
1.0
 10
174.8228637668691
 20
83.50813612366395
 30
0.0
 10
175.7351256531773
 20
83.50813612366395
 30
0.0
 10
176.4747881418117
 20
84.24814312207411
 30
0.0
 10
176.4747881418117
 20
85.15971598883077
 30
0.0
  0
POLYLINE
  5
11E
330
1F
100
AcDbEntity
  8
Ebene 5
 62
     7
370
    18
100
AcDb2dPolyline
 66
     1
 10
0.0
 20
0.0
 30
0.0
  0
VERTEX
  5
11F
330
11E
100
AcDbEntity
  8
Ebene 5
 62
     7
370
    18
100
AcDbVertex
100
AcDb2dVertex
 10
173.4400015268232
 20
83.50813612366395
 30
0.0
  0
VERTEX
  5
120
330
11E
100
AcDbEntity
  8
Ebene 5
 62
     7
370
    18
100
AcDbVertex
100
AcDb2dVertex
 10
174.8228637668691
 20
83.50813612366395
 30
0.0
  0
SEQEND
  5
121
330
11E
100
AcDbEntity
  8
Ebene 5
370
    18
  0
POLYLINE
  5
122
330
1F
100
AcDbEntity
  8
Ebene 5
 62
     7
370
    18
100
AcDb2dPolyline
 66
     1
 10
0.0
 20
0.0
 30
0.0
  0
VERTEX
  5
123
330
122
100
AcDbEntity
  8
Ebene 5
 62
     7
370
    18
100
AcDbVertex
100
AcDb2dVertex
 10
174.8228637668691
 20
83.50813612366395
 30
0.0
  0
VERTEX
  5
124
330
122
100
AcDbEntity
  8
Ebene 5
 62
     7
370
    18
100
AcDbVertex
100
AcDb2dVertex
 10
182.0279412178701
 20
83.50813612366395
 30
0.0
  0
SEQEND
  5
125
330
122
100
AcDbEntity
  8
Ebene 5
370
    18
  0
POLYLINE
  5
126
330
1F
100
AcDbEntity
  8
Ebene 5
 62
     7
370
    18
100
AcDb2dPolyline
 66
     1
 10
0.0
 20
0.0
 30
0.0
  0
VERTEX
  5
127
330
126
100
AcDbEntity
  8
Ebene 5
 62
     7
370
    18
100
AcDbVertex
100
AcDb2dVertex
 10
176.4747881418117
 20
85.15971598883077
 30
0.0
  0
VERTEX
  5
128
330
126
100
AcDbEntity
  8
Ebene 5
 62
     7
370
    18
100
AcDbVertex
100
AcDb2dVertex
 10
176.4747881418117
 20
87.32978306657084
 30
0.0
  0
SEQEND
  5
129
330
126
100
AcDbEntity
  8
Ebene 5
370
    18
  0
SPLINE
  5
12A
330
1F
100
AcDbEntity
  8
Ebene 5
 62
     7
370
    18
100
AcDbSpline
210
0.0
220
0.0
230
1.0
 70
     8
 71
     3
 72
     8
 73
     4
 74
     0
 42
0.0000000001
 43
0.0000000001
 40
0.0
 40
0.0
 40
0.0
 40
0.0
 40
1.0
 40
1.0
 40
1.0
 40
1.0
 10
182.8220362510803
 20
83.50813612366395
 30
0.0
 10
183.7349871569402
 20
83.50813612366395
 30
0.0
 10
184.4743051357987
 20
84.24814312207411
 30
0.0
 10
184.4743051357987
 20
85.15971598883077
 30
0.0
  0
POLYLINE
  5
12B
330
1F
100
AcDbEntity
  8
Ebene 5
 62
     7
370
    18
100
AcDb2dPolyline
 66
     1
 10
0.0
 20
0.0
 30
0.0
  0
VERTEX
  5
12C
330
12B
100
AcDbEntity
  8
Ebene 5
 62
     7
370
    18
100
AcDbVertex
100
AcDb2dVertex
 10
182.0289747471975
 20
83.50813612366395
 30
0.0
  0
VERTEX
  5
12D
330
12B
100
AcDbEntity
  8
Ebene 5
 62
     7
370
    18
100
AcDbVertex
100
AcDb2dVertex
 10
182.8220362510803
 20
83.50813612366395
 30
0.0
  0
SEQEND
  5
12E
330
12B
100
AcDbEntity
  8
Ebene 5
370
    18
  0
POLYLINE
  5
12F
330
1F
100
AcDbEntity
  8
Ebene 5
 62
     7
370
    18
100
AcDb2dPolyline
 66
     1
 10
0.0
 20
0.0
 30
0.0
  0
VERTEX
  5
130
330
12F
100
AcDbEntity
  8
Ebene 5
 62
     7
370
    18
100
AcDbVertex
100
AcDb2dVertex
 10
184.4743051357987
 20
87.32978306657084
 30
0.0
  0
VERTEX
  5
131
330
12F
100
AcDbEntity
  8
Ebene 5
 62
     7
370
    18
100
AcDbVertex
100
AcDb2dVertex
 10
184.4743051357987
 20
85.15971598883077
 30
0.0
  0
SEQEND
  5
132
330
12F
100
AcDbEntity
  8
Ebene 5
370
    18
  0
SPLINE
  5
133
330
1F
100
AcDbEntity
  8
Ebene 5
 62
     7
370
    18
100
AcDbSpline
210
0.0
220
0.0
230
1.0
 70
     8
 71
     3
 72
     8
 73
     4
 74
     0
 42
0.0000000001
 43
0.0000000001
 40
0.0
 40
0.0
 40
0.0
 40
0.0
 40
1.0
 40
1.0
 40
1.0
 40
1.0
 10
178.2242087833046
 20
90.56920848838222
 30
0.0
 10
176.9336751631722
 20
90.56920848838222
 30
0.0
 10
175.8870544643034
 20
89.52189876996187
 30
0.0
 10
175.8870544643034
 20
88.23136514982941
 30
0.0
  0
SPLINE
  5
134
330
1F
100
AcDbEntity
  8
Ebene 5
 62
     7
370
    18
100
AcDbSpline
210
0.0
220
0.0
230
1.0
 70
     8
 71
     3
 72
     8
 73
     4
 74
     0
 42
0.0000000001
 43
0.0000000001
 40
0.0
 40
0.0
 40
0.0
 40
0.0
 40
1.0
 40
1.0
 40
1.0
 40
1.0
 10
177.8566168525301
 20
88.71298981639247
 30
0.0
 10
177.09283867959
 20
88.71298981639247
 30
0.0
 10
176.4747881418117
 20
88.09390574928675
 30
0.0
 10
176.4747881418117
 20
87.32978306657084
 30
0.0
  0
SPLINE
  5
135
330
1F
100
AcDbEntity
  8
Ebene 5
 62
     7
370
    18
100
AcDbSpline
210
0.0
220
0.0
230
1.0
 70
     8
 71
     3
 72
     8
 73
     4
 74
     0
 42
0.0000000001
 43
0.0000000001
 40
0.0
 40
0.0
 40
0.0
 40
0.0
 40
1.0
 40
1.0
 40
1.0
 40
1.0
 10
185.8571673758446
 20
88.71298981639247
 30
0.0
 10
185.0933892029045
 20
88.71298981639247
 30
0.0
 10
184.4743051357987
 20
88.09390574928675
 30
0.0
 10
184.4743051357987
 20
87.32978306657084
 30
0.0
  0
SPLINE
  5
136
330
1F
100
AcDbEntity
  8
Ebene 5
 62
     7
370
    18
100
AcDbSpline
210
0.0
220
0.0
230
1.0
 70
     8
 71
     3
 72
     8
 73
     4
 74
     0
 42
0.0000000001
 43
0.0000000001
 40
0.0
 40
0.0
 40
0.0
 40
0.0
 40
1.0
 40
1.0
 40
1.0
 40
1.0
 10
185.2863146773503
 20
90.56920848838222
 30
0.0
 10
185.7255646414904
 20
90.56920848838222
 30
0.0
 10
186.1041808850904
 20
90.82621278112616
 30
0.0
 10
186.284014988056
 20
91.20414000517455
 30
0.0
  0
POLYLINE
  5
137
330
1F
100
AcDbEntity
  8
Ebene 5
 62
     7
370
    18
100
AcDb2dPolyline
 66
     1
 10
0.0
 20
0.0
 30
0.0
  0
VERTEX
  5
138
330
137
100
AcDbEntity
  8
Ebene 5
 62
     7
370
    18
100
AcDbVertex
100
AcDb2dVertex
 10
178.2242087833046
 20
90.56920848838222
 30
0.0
  0
VERTEX
  5
139
330
137
100
AcDbEntity
  8
Ebene 5
 62
     7
370
    18
100
AcDbVertex
100
AcDb2dVertex
 10
185.2863146773503
 20
90.56920848838222
 30
0.0
  0
SEQEND
  5
13A
330
137
100
AcDbEntity
  8
Ebene 5
370
    18
  0
SPLINE
  5
13B
330
1F
100
AcDbEntity
  8
Ebene 5
 62
     7
370
    18
100
AcDbSpline
210
0.0
220
0.0
230
1.0
 70
     8
 71
     3
 72
     8
 73
     4
 74
     0
 42
0.0000000001
 43
0.0000000001
 40
0.0
 40
0.0
 40
0.0
 40
0.0
 40
1.0
 40
1.0
 40
1.0
 40
1.0
 10
187.7140750673859
 20
92.48399382225732
 30
0.0
 10
187.1917982472789
 20
92.48399382225732
 30
0.0
 10
186.7408349507617
 20
92.17875816090192
 30
0.0
 10
186.5279279093197
 20
91.72848388393632
 30
0.0
  0
POLYLINE
  5
13C
330
1F
100
AcDbEntity
  8
Ebene 5
 62
     7
370
    18
100
AcDb2dPolyline
 66
     1
 10
0.0
 20
0.0
 30
0.0
  0
VERTEX
  5
13D
330
13C
100
AcDbEntity
  8
Ebene 5
 62
     7
370
    18
100
AcDbVertex
100
AcDb2dVertex
 10
186.5279279093197
 20
91.72848388393632
 30
0.0
  0
VERTEX
  5
13E
330
13C
100
AcDbEntity
  8
Ebene 5
 62
     7
370
    18
100
AcDbVertex
100
AcDb2dVertex
 10
186.284014988056
 20
91.20414000517455
 30
0.0
  0
SEQEND
  5
13F
330
13C
100
AcDbEntity
  8
Ebene 5
370
    18
  0
POLYLINE
  5
140
330
1F
100
AcDbEntity
  8
Ebene 5
 62
     7
370
    18
100
AcDb2dPolyline
 66
     1
 10
0.0
 20
0.0
 30
0.0
  0
VERTEX
  5
141
330
140
100
AcDbEntity
  8
Ebene 5
 62
     7
370
    18
100
AcDbVertex
100
AcDb2dVertex
 10
187.7140750673859
 20
92.48399382225732
 30
0.0
  0
VERTEX
  5
142
330
140
100
AcDbEntity
  8
Ebene 5
 62
     7
370
    18
100
AcDbVertex
100
AcDb2dVertex
 10
197.7617026784812
 20
92.48399382225732
 30
0.0
  0
SEQEND
  5
143
330
140
100
AcDbEntity
  8
Ebene 5
370
    18
  0
SPLINE
  5
144
330
1F
100
AcDbEntity
  8
Ebene 5
 62
     7
370
    18
100
AcDbSpline
210
0.0
220
0.0
230
1.0
 70
     8
 71
     3
 72
     8
 73
     4
 74
     0
 42
0.0000000001
 43
0.0000000001
 40
0.0
 40
0.0
 40
0.0
 40
0.0
 40
1.0
 40
1.0
 40
1.0
 40
1.0
 10
187.5645578246904
 20
90.6336318164561
 30
0.0
 10
187.1025702153477
 20
90.6336318164561
 30
0.0
 10
186.7050059340789
 20
90.35147831007903
 30
0.0
 10
186.534129085284
 20
89.94288971598478
 30
0.0
  0
POLYLINE
  5
145
330
1F
100
AcDbEntity
  8
Ebene 5
 62
     7
370
    18
100
AcDb2dPolyline
 66
     1
 10
0.0
 20
0.0
 30
0.0
  0
VERTEX
  5
146
330
145
100
AcDbEntity
  8
Ebene 5
 62
     7
370
    18
100
AcDbVertex
100
AcDb2dVertex
 10
197.7617026784812
 20
90.6336318164561
 30
0.0
  0
VERTEX
  5
147
330
145
100
AcDbEntity
  8
Ebene 5
 62
     7
370
    18
100
AcDbVertex
100
AcDb2dVertex
 10
187.5645578246904
 20
90.6336318164561
 30
0.0
  0
SEQEND
  5
148
330
145
100
AcDbEntity
  8
Ebene 5
370
    18
  0
SPLINE
  5
149
330
1F
100
AcDbEntity
  8
Ebene 5
 62
     7
370
    18
100
AcDbSpline
210
0.0
220
0.0
230
1.0
 70
     8
 71
     3
 72
     8
 73
     4
 74
     0
 42
0.0000000001
 43
0.0000000001
 40
0.0
 40
0.0
 40
0.0
 40
0.0
 40
1.0
 40
1.0
 40
1.0
 40
1.0
 10
185.2270589959134
 20
88.71298981639247
 30
0.0
 10
185.6856015074981
 20
88.71298981639247
 30
0.0
 10
186.0807542203363
 20
88.98032940241029
 30
0.0
 10
186.268856557921
 20
89.37548211524849
 30
0.0
  0
POLYLINE
  5
14A
330
1F
100
AcDbEntity
  8
Ebene 5
 62
     7
370
    18
100
AcDb2dPolyline
 66
     1
 10
0.0
 20
0.0
 30
0.0
  0
VERTEX
  5
14B
330
14A
100
AcDbEntity
  8
Ebene 5
 62
     7
370
    18
100
AcDbVertex
100
AcDb2dVertex
 10
177.8566168525301
 20
88.71298981639247
 30
0.0
  0
VERTEX
  5
14C
330
14A
100
AcDbEntity
  8
Ebene 5
 62
     7
370
    18
100
AcDbVertex
100
AcDb2dVertex
 10
185.2270589959134
 20
88.71298981639247
 30
0.0
  0
SEQEND
  5
14D
330
14A
100
AcDbEntity
  8
Ebene 5
370
    18
  0
POLYLINE
  5
14E
330
1F
100
AcDbEntity
  8
Ebene 5
 62
     7
370
    18
100
AcDb2dPolyline
 66
     1
 10
0.0
 20
0.0
 30
0.0
  0
VERTEX
  5
14F
330
14E
100
AcDbEntity
  8
Ebene 5
 62
     7
370
    18
100
AcDbVertex
100
AcDb2dVertex
 10
185.2270589959134
 20
88.71298981639247
 30
0.0
  0
VERTEX
  5
150
330
14E
100
AcDbEntity
  8
Ebene 5
 62
     7
370
    18
100
AcDbVertex
100
AcDb2dVertex
 10
193.8153431967361
 20
88.71298981639247
 30
0.0
  0
SEQEND
  5
151
330
14E
100
AcDbEntity
  8
Ebene 5
370
    18
  0
POLYLINE
  5
152
330
1F
100
AcDbEntity
  8
Ebene 5
 62
     7
370
    18
100
AcDb2dPolyline
 66
     1
 10
0.0
 20
0.0
 30
0.0
  0
VERTEX
  5
153
330
152
100
AcDbEntity
  8
Ebene 5
 62
     7
370
    18
100
AcDbVertex
100
AcDb2dVertex
 10
186.268856557921
 20
89.37548211524849
 30
0.0
  0
VERTEX
  5
154
330
152
100
AcDbEntity
  8
Ebene 5
 62
     7
370
    18
100
AcDbVertex
100
AcDb2dVertex
 10
186.5324065364051
 20
89.94288971598478
 30
0.0
  0
SEQEND
  5
155
330
152
100
AcDbEntity
  8
Ebene 5
370
    18
  0
SPLINE
  5
156
330
1F
100
AcDbEntity
  8
Ebene 5
 62
     7
370
    18
100
AcDbSpline
210
0.0
220
0.0
230
1.0
 70
     8
 71
     3
 72
     8
 73
     4
 74
     0
 42
0.0000000001
 43
0.0000000001
 40
0.0
 40
0.0
 40
0.0
 40
0.0
 40
1.0
 40
1.0
 40
1.0
 40
1.0
 10
196.1518084961857
 20
90.6336318164561
 30
0.0
 10
195.689820886843
 20
90.6336318164561
 30
0.0
 10
195.2929456251258
 20
90.35147831007903
 30
0.0
 10
195.1213797567793
 20
89.94288971598478
 30
0.0
  0
SPLINE
  5
157
330
1F
100
AcDbEntity
  8
Ebene 5
 62
     7
370
    18
100
AcDbSpline
210
0.0
220
0.0
230
1.0
 70
     8
 71
     3
 72
     8
 73
     4
 74
     0
 42
0.0000000001
 43
0.0000000001
 40
0.0
 40
0.0
 40
0.0
 40
0.0
 40
1.0
 40
1.0
 40
1.0
 40
1.0
 10
193.8153431967361
 20
88.71298981639247
 30
0.0
 10
194.2725076692176
 20
88.71298981639247
 30
0.0
 10
194.669038421159
 20
88.98032940241029
 30
0.0
 10
194.8561072294163
 20
89.37548211524849
 30
0.0
  0
POLYLINE
  5
158
330
1F
100
AcDbEntity
  8
Ebene 5
 62
     7
370
    18
100
AcDb2dPolyline
 66
     1
 10
0.0
 20
0.0
 30
0.0
  0
VERTEX
  5
159
330
158
100
AcDbEntity
  8
Ebene 5
 62
     7
370
    18
100
AcDbVertex
100
AcDb2dVertex
 10
194.8561072294163
 20
89.37548211524849
 30
0.0
  0
VERTEX
  5
15A
330
158
100
AcDbEntity
  8
Ebene 5
 62
     7
370
    18
100
AcDbVertex
100
AcDb2dVertex
 10
195.1210352470035
 20
89.94288971598478
 30
0.0
  0
SEQEND
  5
15B
330
158
100
AcDbEntity
  8
Ebene 5
370
    18
  0
POLYLINE
  5
15C
330
1F
100
AcDbEntity
  8
Ebene 5
 62
     7
370
    18
100
AcDb2dPolyline
 66
     1
 10
0.0
 20
0.0
 30
0.0
  0
VERTEX
  5
15D
330
15C
100
AcDbEntity
  8
Ebene 5
 62
     7
370
    18
100
AcDbVertex
100
AcDb2dVertex
 10
175.9766270060104
 20
62.78483958019699
 30
0.0
  0
VERTEX
  5
15E
330
15C
100
AcDbEntity
  8
Ebene 5
 62
     7
370
    18
100
AcDbVertex
100
AcDb2dVertex
 10
175.9766270060104
 20
60.93378855484418
 30
0.0
  0
SEQEND
  5
15F
330
15C
100
AcDbEntity
  8
Ebene 5
370
    18
  0
POLYLINE
  5
160
330
1F
100
AcDbEntity
  8
Ebene 5
 62
     7
370
    18
100
AcDb2dPolyline
 66
     1
 10
0.0
 20
0.0
 30
0.0
  0
VERTEX
  5
161
330
160
100
AcDbEntity
  8
Ebene 5
 62
     7
370
    18
100
AcDbVertex
100
AcDb2dVertex
 10
179.4923492680103
 20
60.93378855484418
 30
0.0
  0
VERTEX
  5
162
330
160
100
AcDbEntity
  8
Ebene 5
 62
     7
370
    18
100
AcDbVertex
100
AcDb2dVertex
 10
175.9766270060104
 20
60.93378855484418
 30
0.0
  0
SEQEND
  5
163
330
160
100
AcDbEntity
  8
Ebene 5
370
    18
  0
POLYLINE
  5
164
330
1F
100
AcDbEntity
  8
Ebene 5
 62
     7
370
    18
100
AcDb2dPolyline
 66
     1
 10
0.0
 20
0.0
 30
0.0
  0
VERTEX
  5
165
330
164
100
AcDbEntity
  8
Ebene 5
 62
     7
370
    18
100
AcDbVertex
100
AcDb2dVertex
 10
177.7346603918983
 20
60.93378855484418
 30
0.0
  0
VERTEX
  5
166
330
164
100
AcDbEntity
  8
Ebene 5
 62
     7
370
    18
100
AcDbVertex
100
AcDb2dVertex
 10
175.9766270060104
 20
60.93378855484418
 30
0.0
  0
SEQEND
  5
167
330
164
100
AcDbEntity
  8
Ebene 5
370
    18
  0
INSERT
  5
169
330
1F
100
AcDbEntity
  8
Ebene 5
100
AcDbBlockReference
  2
block 4
 10
0.0
 20
0.0
 30
0.0
  0
POLYLINE
  5
22E
330
1F
100
AcDbEntity
  8
Ebene 5
 62
     7
370
    18
100
AcDb2dPolyline
 66
     1
 10
0.0
 20
0.0
 30
0.0
  0
VERTEX
  5
22F
330
22E
100
AcDbEntity
  8
Ebene 5
 62
     7
370
    18
100
AcDbVertex
100
AcDb2dVertex
 10
108.8974730705142
 20
92.95252711734011
 30
0.0
  0
VERTEX
  5
230
330
22E
100
AcDbEntity
  8
Ebene 5
 62
     7
370
    18
100
AcDbVertex
100
AcDb2dVertex
 10
108.8974730705142
 20
98.87568369260364
 30
0.0
  0
SEQEND
  5
231
330
22E
100
AcDbEntity
  8
Ebene 5
370
    18
  0
POLYLINE
  5
232
330
1F
100
AcDbEntity
  8
Ebene 5
 62
     7
370
    18
100
AcDb2dPolyline
 66
     1
 10
0.0
 20
0.0
 30
0.0
  0
VERTEX
  5
233
330
232
100
AcDbEntity
  8
Ebene 5
 62
     7
370
    18
100
AcDbVertex
100
AcDb2dVertex
 10
108.0751282356887
 20
93.69356764507768
 30
0.0
  0
VERTEX
  5
234
330
232
100
AcDbEntity
  8
Ebene 5
 62
     7
370
    18
100
AcDbVertex
100
AcDb2dVertex
 10
101.5683721002265
 20
93.69356764507768
 30
0.0
  0
SEQEND
  5
235
330
232
100
AcDbEntity
  8
Ebene 5
370
    18
  0
POLYLINE
  5
236
330
1F
100
AcDbEntity
  8
Ebene 5
 62
     7
370
    18
100
AcDb2dPolyline
 66
     1
 10
0.0
 20
0.0
 30
0.0
  0
VERTEX
  5
237
330
236
100
AcDbEntity
  8
Ebene 5
 62
     7
370
    18
100
AcDbVertex
100
AcDb2dVertex
 10
108.0751282356887
 20
98.13498767464188
 30
0.0
  0
VERTEX
  5
238
330
236
100
AcDbEntity
  8
Ebene 5
 62
     7
370
    18
100
AcDbVertex
100
AcDb2dVertex
 10
101.5683721002265
 20
98.13498767464188
 30
0.0
  0
SEQEND
  5
239
330
236
100
AcDbEntity
  8
Ebene 5
370
    18
  0
POLYLINE
  5
23A
330
1F
100
AcDbEntity
  8
Ebene 5
 62
     7
370
    18
100
AcDb2dPolyline
 66
     1
 10
0.0
 20
0.0
 30
0.0
  0
VERTEX
  5
23B
330
23A
100
AcDbEntity
  8
Ebene 5
 62
     7
370
    18
100
AcDbVertex
100
AcDb2dVertex
 10
108.8971285607384
 20
98.87568369260364
 30
0.0
  0
VERTEX
  5
23C
330
23A
100
AcDbEntity
  8
Ebene 5
 62
     7
370
    18
100
AcDbVertex
100
AcDb2dVertex
 10
101.5683721002265
 20
98.87568369260364
 30
0.0
  0
SEQEND
  5
23D
330
23A
100
AcDbEntity
  8
Ebene 5
370
    18
  0
POLYLINE
  5
23E
330
1F
100
AcDbEntity
  8
Ebene 5
 62
     7
370
    18
100
AcDb2dPolyline
 66
     1
 10
0.0
 20
0.0
 30
0.0
  0
VERTEX
  5
23F
330
23E
100
AcDbEntity
  8
Ebene 5
 62
     7
370
    18
100
AcDbVertex
100
AcDb2dVertex
 10
108.8971285607384
 20
92.95321613689171
 30
0.0
  0
VERTEX
  5
240
330
23E
100
AcDbEntity
  8
Ebene 5
 62
     7
370
    18
100
AcDbVertex
100
AcDb2dVertex
 10
101.5683721002265
 20
92.95321613689171
 30
0.0
  0
SEQEND
  5
241
330
23E
100
AcDbEntity
  8
Ebene 5
370
    18
  0
POLYLINE
  5
242
330
1F
100
AcDbEntity
  8
Ebene 5
 62
     7
370
    18
100
AcDb2dPolyline
 66
     1
 10
0.0
 20
0.0
 30
0.0
  0
VERTEX
  5
243
330
242
100
AcDbEntity
  8
Ebene 5
 62
     7
370
    18
100
AcDbVertex
100
AcDb2dVertex
 10
101.5683721002265
 20
98.87568369260364
 30
0.0
  0
VERTEX
  5
244
330
242
100
AcDbEntity
  8
Ebene 5
 62
     7
370
    18
100
AcDbVertex
100
AcDb2dVertex
 10
101.5683721002265
 20
98.13498767464188
 30
0.0
  0
SEQEND
  5
245
330
242
100
AcDbEntity
  8
Ebene 5
370
    18
  0
POLYLINE
  5
246
330
1F
100
AcDbEntity
  8
Ebene 5
 62
     7
370
    18
100
AcDb2dPolyline
 66
     1
 10
0.0
 20
0.0
 30
0.0
  0
VERTEX
  5
247
330
246
100
AcDbEntity
  8
Ebene 5
 62
     7
370
    18
100
AcDbVertex
100
AcDb2dVertex
 10
101.5683721002265
 20
93.69356764507768
 30
0.0
  0
VERTEX
  5
248
330
246
100
AcDbEntity
  8
Ebene 5
 62
     7
370
    18
100
AcDbVertex
100
AcDb2dVertex
 10
101.5683721002265
 20
92.95321613689171
 30
0.0
  0
SEQEND
  5
249
330
246
100
AcDbEntity
  8
Ebene 5
370
    18
  0
POLYLINE
  5
24A
330
1F
100
AcDbEntity
  8
Ebene 5
 62
     7
370
    18
100
AcDb2dPolyline
 66
     1
 10
0.0
 20
0.0
 30
0.0
  0
VERTEX
  5
24B
330
24A
100
AcDbEntity
  8
Ebene 5
 62
     7
370
    18
100
AcDbVertex
100
AcDb2dVertex
 10
108.0751282356887
 20
98.13498767464188
 30
0.0
  0
VERTEX
  5
24C
330
24A
100
AcDbEntity
  8
Ebene 5
 62
     7
370
    18
100
AcDbVertex
100
AcDb2dVertex
 10
108.0751282356887
 20
93.69356764507768
 30
0.0
  0
SEQEND
  5
24D
330
24A
100
AcDbEntity
  8
Ebene 5
370
    18
  0
POLYLINE
  5
24E
330
1F
100
AcDbEntity
  8
Ebene 5
 62
     7
370
    18
100
AcDb2dPolyline
 66
     1
 10
0.0
 20
0.0
 30
0.0
  0
VERTEX
  5
24F
330
24E
100
AcDbEntity
  8
Ebene 5
 62
     7
370
    18
100
AcDbVertex
100
AcDb2dVertex
 10
106.9299777409423
 20
98.87568369260364
 30
0.0
  0
VERTEX
  5
250
330
24E
100
AcDbEntity
  8
Ebene 5
 62
     7
370
    18
100
AcDbVertex
100
AcDb2dVertex
 10
106.9299777409423
 20
98.13498767464188
 30
0.0
  0
SEQEND
  5
251
330
24E
100
AcDbEntity
  8
Ebene 5
370
    18
  0
POLYLINE
  5
252
330
1F
100
AcDbEntity
  8
Ebene 5
 62
     7
370
    18
100
AcDb2dPolyline
 66
     1
 10
0.0
 20
0.0
 30
0.0
  0
VERTEX
  5
253
330
252
100
AcDbEntity
  8
Ebene 5
 62
     7
370
    18
100
AcDbVertex
100
AcDb2dVertex
 10
106.9299777409423
 20
93.69356764507768
 30
0.0
  0
VERTEX
  5
254
330
252
100
AcDbEntity
  8
Ebene 5
 62
     7
370
    18
100
AcDbVertex
100
AcDb2dVertex
 10
106.9299777409423
 20
92.95321613689171
 30
0.0
  0
SEQEND
  5
255
330
252
100
AcDbEntity
  8
Ebene 5
370
    18
  0
SPLINE
  5
256
330
1F
100
AcDbEntity
  8
Ebene 5
 62
     7
370
    18
100
AcDbSpline
210
0.0
220
0.0
230
1.0
 70
     8
 71
     3
 72
    14
 73
    10
 74
     0
 42
0.0000000001
 43
0.0000000001
 40
0.0
 40
0.0
 40
0.0
 40
0.0
 40
1.0
 40
1.0
 40
1.0
 40
2.0
 40
2.0
 40
2.0
 40
3.0
 40
3.0
 40
3.0
 40
3.0
 10
98.03766366297947
 20
97.98202533418838
 30
0.0
 10
98.03766366297947
 20
97.98202533418838
 30
0.0
 10
98.03766366297947
 20
97.98202533418838
 30
0.0
 10
98.03766366297947
 20
97.98202533418838
 30
0.0
 10
96.91266699011707
 20
97.98202533418838
 30
0.0
 10
96.00109412336042
 20
97.07045246743172
 30
0.0
 10
96.00109412336042
 20
95.94562804945723
 30
0.0
 10
96.00109412336042
 20
94.82218167058592
 30
0.0
 10
96.91266699011707
 20
93.91060880382926
 30
0.0
 10
98.03766366297947
 20
93.90957527450188
 30
0.0
  0
POLYLINE
  5
257
330
1F
100
AcDbEntity
  8
Ebene 5
 62
     7
370
    18
100
AcDb2dPolyline
 66
     1
 10
0.0
 20
0.0
 30
0.0
  0
VERTEX
  5
258
330
257
100
AcDbEntity
  8
Ebene 5
 62
     7
370
    18
100
AcDbVertex
100
AcDb2dVertex
 10
98.03766366297947
 20
93.91060880382926
 30
0.0
  0
VERTEX
  5
259
330
257
100
AcDbEntity
  8
Ebene 5
 62
     7
370
    18
100
AcDbVertex
100
AcDb2dVertex
 10
102.1771208740583
 20
93.90957527450188
 30
0.0
  0
SEQEND
  5
25A
330
257
100
AcDbEntity
  8
Ebene 5
370
    18
  0
SPLINE
  5
25B
330
1F
100
AcDbEntity
  8
Ebene 5
 62
     7
370
    18
100
AcDbSpline
210
0.0
220
0.0
230
1.0
 70
    11
 71
     3
 72
    17
 73
    13
 74
     0
 42
0.0000000001
 43
0.0000000001
 40
0.0
 40
0.0
 40
0.0
 40
0.0
 40
1.0
 40
1.0
 40
1.0
 40
2.0
 40
2.0
 40
2.0
 40
3.0
 40
3.0
 40
3.0
 40
4.0
 40
4.0
 40
4.0
 40
4.0
 10
97.40876106726355
 20
96.57401388050944
 30
0.0
 10
97.06201197792471
 20
96.22778155583428
 30
0.0
 10
97.06201197792471
 20
95.66519709195914
 30
0.0
 10
97.40876106726355
 20
95.31793123795661
 30
0.0
 10
97.7560269212661
 20
94.97100989372987
 30
0.0
 10
98.31861138514124
 20
94.97100989372987
 30
0.0
 10
98.66553272936798
 20
95.31724221840501
 30
0.0
 10
99.01297083825841
 20
95.66519709195914
 30
0.0
 10
99.01297083825841
 20
96.22778155583428
 30
0.0
 10
98.66553272936798
 20
96.57401388050944
 30
0.0
 10
98.31861138514124
 20
96.92162424428777
 30
0.0
 10
97.7560269212661
 20
96.92162424428777
 30
0.0
 10
97.40876106726355
 20
96.57401388050944
 30
0.0
  0
POLYLINE
  5
25C
330
1F
100
AcDbEntity
  8
Ebene 5
 62
     7
370
    18
100
AcDb2dPolyline
 66
     1
 10
0.0
 20
0.0
 30
0.0
  0
VERTEX
  5
25D
330
25C
100
AcDbEntity
  8
Ebene 5
 62
     7
370
    18
100
AcDbVertex
100
AcDb2dVertex
 10
102.1771208740583
 20
93.90957527450188
 30
0.0
  0
VERTEX
  5
25E
330
25C
100
AcDbEntity
  8
Ebene 5
 62
     7
370
    18
100
AcDbVertex
100
AcDb2dVertex
 10
102.1771208740583
 20
97.98202533418838
 30
0.0
  0
SEQEND
  5
25F
330
25C
100
AcDbEntity
  8
Ebene 5
370
    18
  0
POLYLINE
  5
260
330
1F
100
AcDbEntity
  8
Ebene 5
 62
     7
370
    18
100
AcDb2dPolyline
 66
     1
 10
0.0
 20
0.0
 30
0.0
  0
VERTEX
  5
261
330
260
100
AcDbEntity
  8
Ebene 5
 62
     7
370
    18
100
AcDbVertex
100
AcDb2dVertex
 10
102.1771208740583
 20
93.90957527450188
 30
0.0
  0
VERTEX
  5
262
330
260
100
AcDbEntity
  8
Ebene 5
 62
     7
370
    18
100
AcDbVertex
100
AcDb2dVertex
 10
106.7501436379767
 20
93.90957527450188
 30
0.0
  0
SEQEND
  5
263
330
260
100
AcDbEntity
  8
Ebene 5
370
    18
  0
POLYLINE
  5
264
330
1F
100
AcDbEntity
  8
Ebene 5
 62
     7
370
    18
100
AcDb2dPolyline
 66
     1
 10
0.0
 20
0.0
 30
0.0
  0
VERTEX
  5
265
330
264
100
AcDbEntity
  8
Ebene 5
 62
     7
370
    18
100
AcDbVertex
100
AcDb2dVertex
 10
106.7501436379767
 20
93.90957527450188
 30
0.0
  0
VERTEX
  5
266
330
264
100
AcDbEntity
  8
Ebene 5
 62
     7
370
    18
100
AcDbVertex
100
AcDb2dVertex
 10
106.7501436379767
 20
97.98202533418838
 30
0.0
  0
SEQEND
  5
267
330
264
100
AcDbEntity
  8
Ebene 5
370
    18
  0
POLYLINE
  5
268
330
1F
100
AcDbEntity
  8
Ebene 5
 62
     7
370
    18
100
AcDb2dPolyline
 66
     1
 10
0.0
 20
0.0
 30
0.0
  0
VERTEX
  5
269
330
268
100
AcDbEntity
  8
Ebene 5
 62
     7
370
    18
100
AcDbVertex
100
AcDb2dVertex
 10
98.03766366297947
 20
97.98202533418838
 30
0.0
  0
VERTEX
  5
26A
330
268
100
AcDbEntity
  8
Ebene 5
 62
     7
370
    18
100
AcDbVertex
100
AcDb2dVertex
 10
106.7501436379767
 20
97.98202533418838
 30
0.0
  0
SEQEND
  5
26B
330
268
100
AcDbEntity
  8
Ebene 5
370
    18
  0
POLYLINE
  5
26C
330
1F
100
AcDbEntity
  8
Ebene 5
 62
     7
370
    18
100
AcDb2dPolyline
 66
     1
 10
0.0
 20
0.0
 30
0.0
  0
VERTEX
  5
26D
330
26C
100
AcDbEntity
  8
Ebene 5
 62
     7
370
    18
100
AcDbVertex
100
AcDb2dVertex
 10
81.6591521569659
 20
97.98340337329157
 30
0.0
  0
VERTEX
  5
26E
330
26C
100
AcDbEntity
  8
Ebene 5
 62
     7
370
    18
100
AcDbVertex
100
AcDb2dVertex
 10
81.6591521569659
 20
93.91129782338085
 30
0.0
  0
SEQEND
  5
26F
330
26C
100
AcDbEntity
  8
Ebene 5
370
    18
  0
POLYLINE
  5
270
330
1F
100
AcDbEntity
  8
Ebene 5
 62
     7
370
    18
100
AcDb2dPolyline
 66
     1
 10
0.0
 20
0.0
 30
0.0
  0
VERTEX
  5
271
330
270
100
AcDbEntity
  8
Ebene 5
 62
     7
370
    18
100
AcDbVertex
100
AcDb2dVertex
 10
73.06242746663621
 20
97.98271435373998
 30
0.0
  0
VERTEX
  5
272
330
270
100
AcDbEntity
  8
Ebene 5
 62
     7
370
    18
100
AcDbVertex
100
AcDb2dVertex
 10
51.43134766394635
 20
98.57940528541894
 30
0.0
  0
SEQEND
  5
273
330
270
100
AcDbEntity
  8
Ebene 5
370
    18
  0
POLYLINE
  5
274
330
1F
100
AcDbEntity
  8
Ebene 5
 62
     7
370
    18
100
AcDb2dPolyline
 66
     1
 10
0.0
 20
0.0
 30
0.0
  0
VERTEX
  5
275
330
274
100
AcDbEntity
  8
Ebene 5
 62
     7
370
    18
100
AcDbVertex
100
AcDb2dVertex
 10
87.50152118980523
 20
97.42736459515655
 30
0.0
  0
VERTEX
  5
276
330
274
100
AcDbEntity
  8
Ebene 5
 62
     7
370
    18
100
AcDbVertex
100
AcDb2dVertex
 10
83.66816091452127
 20
97.42736459515655
 30
0.0
  0
SEQEND
  5
277
330
274
100
AcDbEntity
  8
Ebene 5
370
    18
  0
POLYLINE
  5
278
330
1F
100
AcDbEntity
  8
Ebene 5
 62
     7
370
    18
100
AcDb2dPolyline
 66
     1
 10
0.0
 20
0.0
 30
0.0
  0
VERTEX
  5
279
330
278
100
AcDbEntity
  8
Ebene 5
 62
     7
370
    18
100
AcDbVertex
100
AcDb2dVertex
 10
87.50152118980523
 20
94.46595856241268
 30
0.0
  0
VERTEX
  5
27A
330
278
100
AcDbEntity
  8
Ebene 5
 62
     7
370
    18
100
AcDbVertex
100
AcDb2dVertex
 10
83.66816091452127
 20
94.46595856241268
 30
0.0
  0
SEQEND
  5
27B
330
278
100
AcDbEntity
  8
Ebene 5
370
    18
  0
POLYLINE
  5
27C
330
1F
100
AcDbEntity
  8
Ebene 5
 62
     7
370
    18
100
AcDb2dPolyline
 66
     1
 10
0.0
 20
0.0
 30
0.0
  0
VERTEX
  5
27D
330
27C
100
AcDbEntity
  8
Ebene 5
 62
     7
370
    18
100
AcDbVertex
100
AcDb2dVertex
 10
96.46704359512474
 20
97.24236284555401
 30
0.0
  0
VERTEX
  5
27E
330
27C
100
AcDbEntity
  8
Ebene 5
 62
     7
370
    18
100
AcDbVertex
100
AcDb2dVertex
 10
87.50152118980523
 20
97.24236284555401
 30
0.0
  0
SEQEND
  5
27F
330
27C
100
AcDbEntity
  8
Ebene 5
370
    18
  0
POLYLINE
  5
280
330
1F
100
AcDbEntity
  8
Ebene 5
 62
     7
370
    18
100
AcDb2dPolyline
 66
     1
 10
0.0
 20
0.0
 30
0.0
  0
VERTEX
  5
281
330
280
100
AcDbEntity
  8
Ebene 5
 62
     7
370
    18
100
AcDbVertex
100
AcDb2dVertex
 10
96.46652683046104
 20
94.65096031201523
 30
0.0
  0
VERTEX
  5
282
330
280
100
AcDbEntity
  8
Ebene 5
 62
     7
370
    18
100
AcDbVertex
100
AcDb2dVertex
 10
87.50152118980523
 20
94.65096031201523
 30
0.0
  0
SEQEND
  5
283
330
280
100
AcDbEntity
  8
Ebene 5
370
    18
  0
POLYLINE
  5
284
330
1F
100
AcDbEntity
  8
Ebene 5
 62
     7
370
    18
100
AcDb2dPolyline
 66
     1
 10
0.0
 20
0.0
 30
0.0
  0
VERTEX
  5
285
330
284
100
AcDbEntity
  8
Ebene 5
 62
     7
370
    18
100
AcDbVertex
100
AcDb2dVertex
 10
87.50152118980523
 20
97.42736459515655
 30
0.0
  0
VERTEX
  5
286
330
284
100
AcDbEntity
  8
Ebene 5
 62
     7
370
    18
100
AcDbVertex
100
AcDb2dVertex
 10
87.50152118980523
 20
94.46595856241268
 30
0.0
  0
SEQEND
  5
287
330
284
100
AcDbEntity
  8
Ebene 5
370
    18
  0
POLYLINE
  5
288
330
1F
100
AcDbEntity
  8
Ebene 5
 62
     7
370
    18
100
AcDb2dPolyline
 66
     1
 10
0.0
 20
0.0
 30
0.0
  0
VERTEX
  5
289
330
288
100
AcDbEntity
  8
Ebene 5
 62
     7
370
    18
100
AcDbVertex
100
AcDb2dVertex
 10
81.6591521569659
 20
97.98340337329157
 30
0.0
  0
VERTEX
  5
28A
330
288
100
AcDbEntity
  8
Ebene 5
 62
     7
370
    18
100
AcDbVertex
100
AcDb2dVertex
 10
73.06242746663621
 20
97.98271435373998
 30
0.0
  0
SEQEND
  5
28B
330
288
100
AcDbEntity
  8
Ebene 5
370
    18
  0
POLYLINE
  5
28C
330
1F
100
AcDbEntity
  8
Ebene 5
 62
     7
370
    18
100
AcDb2dPolyline
 66
     1
 10
0.0
 20
0.0
 30
0.0
  0
VERTEX
  5
28D
330
28C
100
AcDbEntity
  8
Ebene 5
 62
     7
370
    18
100
AcDbVertex
100
AcDb2dVertex
 10
81.6591521569659
 20
93.91129782338085
 30
0.0
  0
VERTEX
  5
28E
330
28C
100
AcDbEntity
  8
Ebene 5
 62
     7
370
    18
100
AcDbVertex
100
AcDb2dVertex
 10
73.06242746663621
 20
93.91129782338085
 30
0.0
  0
SEQEND
  5
28F
330
28C
100
AcDbEntity
  8
Ebene 5
370
    18
  0
POLYLINE
  5
290
330
1F
100
AcDbEntity
  8
Ebene 5
 62
     7
370
    18
100
AcDb2dPolyline
 66
     1
 10
0.0
 20
0.0
 30
0.0
  0
VERTEX
  5
291
330
290
100
AcDbEntity
  8
Ebene 5
 62
     7
370
    18
100
AcDbVertex
100
AcDb2dVertex
 10
51.43134766394635
 20
93.39763374766876
 30
0.0
  0
VERTEX
  5
292
330
290
100
AcDbEntity
  8
Ebene 5
 62
     7
370
    18
100
AcDbVertex
100
AcDb2dVertex
 10
25.3676328309751
 20
93.39763374766876
 30
0.0
  0
SEQEND
  5
293
330
290
100
AcDbEntity
  8
Ebene 5
370
    18
  0
POLYLINE
  5
294
330
1F
100
AcDbEntity
  8
Ebene 5
 62
     7
370
    18
100
AcDb2dPolyline
 66
     1
 10
0.0
 20
0.0
 30
0.0
  0
VERTEX
  5
295
330
294
100
AcDbEntity
  8
Ebene 5
 62
     7
370
    18
100
AcDbVertex
100
AcDb2dVertex
 10
51.43134766394635
 20
93.39763374766876
 30
0.0
  0
VERTEX
  5
296
330
294
100
AcDbEntity
  8
Ebene 5
 62
     7
370
    18
100
AcDbVertex
100
AcDb2dVertex
 10
73.06242746663621
 20
93.91129782338085
 30
0.0
  0
SEQEND
  5
297
330
294
100
AcDbEntity
  8
Ebene 5
370
    18
  0
POLYLINE
  5
298
330
1F
100
AcDbEntity
  8
Ebene 5
 62
     7
370
    18
100
AcDb2dPolyline
 66
     1
 10
0.0
 20
0.0
 30
0.0
  0
VERTEX
  5
299
330
298
100
AcDbEntity
  8
Ebene 5
 62
     7
370
    18
100
AcDbVertex
100
AcDb2dVertex
 10
22.17816132665417
 20
93.97330958302416
 30
0.0
  0
VERTEX
  5
29A
330
298
100
AcDbEntity
  8
Ebene 5
 62
     7
370
    18
100
AcDbVertex
100
AcDb2dVertex
 10
22.17816132665417
 20
92.48399382225732
 30
0.0
  0
SEQEND
  5
29B
330
298
100
AcDbEntity
  8
Ebene 5
370
    18
  0
POLYLINE
  5
29C
330
1F
100
AcDbEntity
  8
Ebene 5
 62
     7
370
    18
100
AcDb2dPolyline
 66
     1
 10
0.0
 20
0.0
 30
0.0
  0
VERTEX
  5
29D
330
29C
100
AcDbEntity
  8
Ebene 5
 62
     7
370
    18
100
AcDbVertex
100
AcDb2dVertex
 10
22.17816132665417
 20
98.57940528541894
 30
0.0
  0
VERTEX
  5
29E
330
29C
100
AcDbEntity
  8
Ebene 5
 62
     7
370
    18
100
AcDbVertex
100
AcDb2dVertex
 10
22.17816132665417
 20
99.02830152328134
 30
0.0
  0
SEQEND
  5
29F
330
29C
100
AcDbEntity
  8
Ebene 5
370
    18
  0
POLYLINE
  5
2A0
330
1F
100
AcDbEntity
  8
Ebene 5
 62
     7
370
    18
100
AcDb2dPolyline
 66
     1
 10
0.0
 20
0.0
 30
0.0
  0
VERTEX
  5
2A1
330
2A0
100
AcDbEntity
  8
Ebene 5
 62
     7
370
    18
100
AcDbVertex
100
AcDb2dVertex
 10
24.9449193360732
 20
98.57940528541894
 30
0.0
  0
VERTEX
  5
2A2
330
2A0
100
AcDbEntity
  8
Ebene 5
 62
     7
370
    18
100
AcDbVertex
100
AcDb2dVertex
 10
24.9449193360732
 20
99.02830152328134
 30
0.0
  0
SEQEND
  5
2A3
330
2A0
100
AcDbEntity
  8
Ebene 5
370
    18
  0
POLYLINE
  5
2A4
330
1F
100
AcDbEntity
  8
Ebene 5
 62
     7
370
    18
100
AcDb2dPolyline
 66
     1
 10
0.0
 20
0.0
 30
0.0
  0
VERTEX
  5
2A5
330
2A4
100
AcDbEntity
  8
Ebene 5
 62
     7
370
    18
100
AcDbVertex
100
AcDb2dVertex
 10
22.17816132665417
 20
99.02830152328134
 30
0.0
  0
VERTEX
  5
2A6
330
2A4
100
AcDbEntity
  8
Ebene 5
 62
     7
370
    18
100
AcDbVertex
100
AcDb2dVertex
 10
24.9449193360732
 20
99.02830152328134
 30
0.0
  0
SEQEND
  5
2A7
330
2A4
100
AcDbEntity
  8
Ebene 5
370
    18
  0
POLYLINE
  5
2A8
330
1F
100
AcDbEntity
  8
Ebene 5
 62
     7
370
    18
100
AcDb2dPolyline
 66
     1
 10
0.0
 20
0.0
 30
0.0
  0
VERTEX
  5
2A9
330
2A8
100
AcDbEntity
  8
Ebene 5
 62
     7
370
    18
100
AcDbVertex
100
AcDb2dVertex
 10
24.9449193360732
 20
93.97330958302416
 30
0.0
  0
VERTEX
  5
2AA
330
2A8
100
AcDbEntity
  8
Ebene 5
 62
     7
370
    18
100
AcDbVertex
100
AcDb2dVertex
 10
24.9449193360732
 20
92.48399382225732
 30
0.0
  0
SEQEND
  5
2AB
330
2A8
100
AcDbEntity
  8
Ebene 5
370
    18
  0
POLYLINE
  5
2AC
330
1F
100
AcDbEntity
  8
Ebene 5
 62
     7
370
    18
100
AcDb2dPolyline
 66
     1
 10
0.0
 20
0.0
 30
0.0
  0
VERTEX
  5
2AD
330
2AC
100
AcDbEntity
  8
Ebene 5
 62
     7
370
    18
100
AcDbVertex
100
AcDb2dVertex
 10
102.4196557562188
 20
85.35953165879255
 30
0.0
  0
VERTEX
  5
2AE
330
2AC
100
AcDbEntity
  8
Ebene 5
 62
     7
370
    18
100
AcDbVertex
100
AcDb2dVertex
 10
105.5447039324659
 20
85.35953165879255
 30
0.0
  0
SEQEND
  5
2AF
330
2AC
100
AcDbEntity
  8
Ebene 5
370
    18
  0
POLYLINE
  5
2B0
330
1F
100
AcDbEntity
  8
Ebene 5
 62
     7
370
    18
100
AcDb2dPolyline
 66
     1
 10
0.0
 20
0.0
 30
0.0
  0
VERTEX
  5
2B1
330
2B0
100
AcDbEntity
  8
Ebene 5
 62
     7
370
    18
100
AcDbVertex
100
AcDb2dVertex
 10
102.4196557562188
 20
83.50813612366395
 30
0.0
  0
VERTEX
  5
2B2
330
2B0
100
AcDbEntity
  8
Ebene 5
 62
     7
370
    18
100
AcDbVertex
100
AcDb2dVertex
 10
105.5447039324659
 20
83.50813612366395
 30
0.0
  0
SEQEND
  5
2B3
330
2B0
100
AcDbEntity
  8
Ebene 5
370
    18
  0
SPLINE
  5
2B4
330
1F
100
AcDbEntity
  8
Ebene 5
 62
     7
370
    18
100
AcDbSpline
210
0.0
220
0.0
230
1.0
 70
     8
 71
     3
 72
     8
 73
     4
 74
     0
 42
0.0000000001
 43
0.0000000001
 40
0.0
 40
0.0
 40
0.0
 40
0.0
 40
1.0
 40
1.0
 40
1.0
 40
1.0
 10
93.99432467934773
 20
86.84161271426767
 30
0.0
 10
93.99329115002034
 20
85.00124149196454
 30
0.0
 10
95.48501847921774
 20
83.50916965299133
 30
0.0
 10
97.32435617219349
 20
83.50882514321553
 30
0.0
  0
POLYLINE
  5
2B5
330
1F
100
AcDbEntity
  8
Ebene 5
 62
     7
370
    18
100
AcDb2dPolyline
 66
     1
 10
0.0
 20
0.0
 30
0.0
  0
VERTEX
  5
2B6
330
2B5
100
AcDbEntity
  8
Ebene 5
 62
     7
370
    18
100
AcDbVertex
100
AcDb2dVertex
 10
102.4196557562188
 20
83.50813612366395
 30
0.0
  0
VERTEX
  5
2B7
330
2B5
100
AcDbEntity
  8
Ebene 5
 62
     7
370
    18
100
AcDbVertex
100
AcDb2dVertex
 10
97.32521744663299
 20
83.50813612366395
 30
0.0
  0
SEQEND
  5
2B8
330
2B5
100
AcDbEntity
  8
Ebene 5
370
    18
  0
POLYLINE
  5
2B9
330
1F
100
AcDbEntity
  8
Ebene 5
 62
     7
370
    18
100
AcDb2dPolyline
 66
     1
 10
0.0
 20
0.0
 30
0.0
  0
VERTEX
  5
2BA
330
2B9
100
AcDbEntity
  8
Ebene 5
 62
     7
370
    18
100
AcDbVertex
100
AcDb2dVertex
 10
93.99432467934773
 20
87.69634146801796
 30
0.0
  0
VERTEX
  5
2BB
330
2B9
100
AcDbEntity
  8
Ebene 5
 62
     7
370
    18
100
AcDbVertex
100
AcDb2dVertex
 10
93.99432467934773
 20
86.84092369471608
 30
0.0
  0
SEQEND
  5
2BC
330
2B9
100
AcDbEntity
  8
Ebene 5
370
    18
  0
POLYLINE
  5
2BD
330
1F
100
AcDbEntity
  8
Ebene 5
 62
     7
370
    18
100
AcDb2dPolyline
 66
     1
 10
0.0
 20
0.0
 30
0.0
  0
VERTEX
  5
2BE
330
2BD
100
AcDbEntity
  8
Ebene 5
 62
     7
370
    18
100
AcDbVertex
100
AcDb2dVertex
 10
102.4196557562188
 20
85.35953165879255
 30
0.0
  0
VERTEX
  5
2BF
330
2BD
100
AcDbEntity
  8
Ebene 5
 62
     7
370
    18
100
AcDbVertex
100
AcDb2dVertex
 10
98.9690458418444
 20
85.35953165879255
 30
0.0
  0
SEQEND
  5
2C0
330
2BD
100
AcDbEntity
  8
Ebene 5
370
    18
  0
SPLINE
  5
2C1
330
1F
100
AcDbEntity
  8
Ebene 5
 62
     7
370
    18
100
AcDbSpline
210
0.0
220
0.0
230
1.0
 70
     8
 71
     3
 72
     8
 73
     4
 74
     0
 42
0.0000000001
 43
0.0000000001
 40
0.0
 40
0.0
 40
0.0
 40
0.0
 40
1.0
 40
1.0
 40
1.0
 40
1.0
 10
93.99432467934773
 20
87.69634146801796
 30
0.0
 10
93.99432467934773
 20
87.97677242551605
 30
0.0
 10
93.8802919435592
 20
88.23136514982941
 30
0.0
 10
93.69546244884455
 20
88.41567787988036
 30
0.0
  0
SPLINE
  5
2C2
330
1F
100
AcDbEntity
  8
Ebene 5
 62
     7
370
    18
100
AcDbSpline
210
0.0
220
0.0
230
1.0
 70
     8
 71
     3
 72
     8
 73
     4
 74
     0
 42
0.0000000001
 43
0.0000000001
 40
0.0
 40
0.0
 40
0.0
 40
0.0
 40
1.0
 40
1.0
 40
1.0
 40
1.0
 10
93.69546244884455
 20
88.41567787988036
 30
0.0
 10
93.49702481798596
 20
88.61446002051476
 30
0.0
 10
93.23588640793245
 20
88.71402334571985
 30
0.0
 10
92.97612603698215
 20
88.71402334571985
 30
0.0
  0
POLYLINE
  5
2C3
330
1F
100
AcDbEntity
  8
Ebene 5
 62
     7
370
    18
100
AcDb2dPolyline
 66
     1
 10
0.0
 20
0.0
 30
0.0
  0
VERTEX
  5
2C4
330
2C3
100
AcDbEntity
  8
Ebene 5
 62
     7
370
    18
100
AcDbVertex
100
AcDb2dVertex
 10
37.5064347811531
 20
90.56507437107267
 30
0.0
  0
VERTEX
  5
2C5
330
2C3
100
AcDbEntity
  8
Ebene 5
 62
     7
370
    18
100
AcDbVertex
100
AcDb2dVertex
 10
94.64200305784452
 20
90.56507437107267
 30
0.0
  0
SEQEND
  5
2C6
330
2C3
100
AcDbEntity
  8
Ebene 5
370
    18
  0
SPLINE
  5
2C7
330
1F
100
AcDbEntity
  8
Ebene 5
 62
     7
370
    18
100
AcDbSpline
210
0.0
220
0.0
230
1.0
 70
     8
 71
     3
 72
     8
 73
     4
 74
     0
 42
0.0000000001
 43
0.0000000001
 40
0.0
 40
0.0
 40
0.0
 40
0.0
 40
1.0
 40
1.0
 40
1.0
 40
1.0
 10
34.66750197370477
 20
89.1773889941657
 30
0.0
 10
35.72773080871749
 20
88.86009549065743
 30
0.0
 10
36.79760591745249
 20
88.70988922841029
 30
0.0
 10
37.77015701452508
 20
88.71298981639247
 30
0.0
  0
POLYLINE
  5
2C8
330
1F
100
AcDbEntity
  8
Ebene 5
 62
     7
370
    18
100
AcDb2dPolyline
 66
     1
 10
0.0
 20
0.0
 30
0.0
  0
VERTEX
  5
2C9
330
2C8
100
AcDbEntity
  8
Ebene 5
 62
     7
370
    18
100
AcDbVertex
100
AcDb2dVertex
 10
33.92422213242454
 20
88.71402334571985
 30
0.0
  0
VERTEX
  5
2CA
330
2C8
100
AcDbEntity
  8
Ebene 5
 62
     7
370
    18
100
AcDbVertex
100
AcDb2dVertex
 10
95.08194204153624
 20
88.71402334571985
 30
0.0
  0
SEQEND
  5
2CB
330
2C8
100
AcDbEntity
  8
Ebene 5
370
    18
  0
POLYLINE
  5
2CC
330
1F
100
AcDbEntity
  8
Ebene 5
 62
     7
370
    18
100
AcDb2dPolyline
 66
     1
 10
0.0
 20
0.0
 30
0.0
  0
VERTEX
  5
2CD
330
2CC
100
AcDbEntity
  8
Ebene 5
 62
     7
370
    18
100
AcDbVertex
100
AcDb2dVertex
 10
23.54224778391909
 20
92.48399382225732
 30
0.0
  0
VERTEX
  5
2CE
330
2CC
100
AcDbEntity
  8
Ebene 5
 62
     7
370
    18
100
AcDbVertex
100
AcDb2dVertex
 10
24.41747486932926
 20
92.48399382225732
 30
0.0
  0
SEQEND
  5
2CF
330
2CC
100
AcDbEntity
  8
Ebene 5
370
    18
  0
SPLINE
  5
2D0
330
1F
100
AcDbEntity
  8
Ebene 5
 62
     7
370
    18
100
AcDbSpline
210
0.0
220
0.0
230
1.0
 70
     8
 71
     3
 72
     8
 73
     4
 74
     0
 42
0.0000000001
 43
0.0000000001
 40
0.0
 40
0.0
 40
0.0
 40
0.0
 40
1.0
 40
1.0
 40
1.0
 40
1.0
 10
31.11388363636729
 20
90.24020165249688
 30
0.0
 10
30.23004380656223
 20
90.50444065053253
 30
0.0
 10
29.33793574213804
 20
90.63122024802553
 30
0.0
 10
28.52782100435335
 20
90.62880867959495
 30
0.0
  0
POLYLINE
  5
2D1
330
1F
100
AcDbEntity
  8
Ebene 5
 62
     7
370
    18
100
AcDb2dPolyline
 66
     1
 10
0.0
 20
0.0
 30
0.0
  0
VERTEX
  5
2D2
330
2D1
100
AcDbEntity
  8
Ebene 5
 62
     7
370
    18
100
AcDbVertex
100
AcDb2dVertex
 10
31.11078304838513
 20
90.24226871115165
 30
0.0
  0
VERTEX
  5
2D3
330
2D1
100
AcDbEntity
  8
Ebene 5
 62
     7
370
    18
100
AcDbVertex
100
AcDb2dVertex
 10
34.66750197370477
 20
89.17842252349308
 30
0.0
  0
SEQEND
  5
2D4
330
2D1
100
AcDbEntity
  8
Ebene 5
370
    18
  0
POLYLINE
  5
2D5
330
1F
100
AcDbEntity
  8
Ebene 5
 62
     7
370
    18
100
AcDb2dPolyline
 66
     1
 10
0.0
 20
0.0
 30
0.0
  0
VERTEX
  5
2D6
330
2D5
100
AcDbEntity
  8
Ebene 5
 62
     7
370
    18
100
AcDbVertex
100
AcDb2dVertex
 10
105.5447039324659
 20
85.3643547956537
 30
0.0
  0
VERTEX
  5
2D7
330
2D5
100
AcDbEntity
  8
Ebene 5
 62
     7
370
    18
100
AcDbVertex
100
AcDb2dVertex
 10
107.1356500770926
 20
85.3643547956537
 30
0.0
  0
SEQEND
  5
2D8
330
2D5
100
AcDbEntity
  8
Ebene 5
370
    18
  0
POLYLINE
  5
2D9
330
1F
100
AcDbEntity
  8
Ebene 5
 62
     7
370
    18
100
AcDb2dPolyline
 66
     1
 10
0.0
 20
0.0
 30
0.0
  0
VERTEX
  5
2DA
330
2D9
100
AcDbEntity
  8
Ebene 5
 62
     7
370
    18
100
AcDbVertex
100
AcDb2dVertex
 10
105.5447039324659
 20
85.3643547956537
 30
0.0
  0
VERTEX
  5
2DB
330
2D9
100
AcDbEntity
  8
Ebene 5
 62
     7
370
    18
100
AcDbVertex
100
AcDb2dVertex
 10
105.5447039324659
 20
83.50813612366395
 30
0.0
  0
SEQEND
  5
2DC
330
2D9
100
AcDbEntity
  8
Ebene 5
370
    18
  0
POLYLINE
  5
2DD
330
1F
100
AcDbEntity
  8
Ebene 5
 62
     7
370
    18
100
AcDb2dPolyline
 66
     1
 10
0.0
 20
0.0
 30
0.0
  0
VERTEX
  5
2DE
330
2DD
100
AcDbEntity
  8
Ebene 5
 62
     7
370
    18
100
AcDbVertex
100
AcDb2dVertex
 10
105.5447039324659
 20
83.50813612366395
 30
0.0
  0
VERTEX
  5
2DF
330
2DD
100
AcDbEntity
  8
Ebene 5
 62
     7
370
    18
100
AcDbVertex
100
AcDb2dVertex
 10
107.1356500770926
 20
83.50813612366395
 30
0.0
  0
SEQEND
  5
2E0
330
2DD
100
AcDbEntity
  8
Ebene 5
370
    18
  0
POLYLINE
  5
2E1
330
1F
100
AcDbEntity
  8
Ebene 5
 62
     7
370
    18
100
AcDb2dPolyline
 66
     1
 10
0.0
 20
0.0
 30
0.0
  0
VERTEX
  5
2E2
330
2E1
100
AcDbEntity
  8
Ebene 5
 62
     7
370
    18
100
AcDbVertex
100
AcDb2dVertex
 10
107.1356500770926
 20
85.3643547956537
 30
0.0
  0
VERTEX
  5
2E3
330
2E1
100
AcDbEntity
  8
Ebene 5
 62
     7
370
    18
100
AcDbVertex
100
AcDb2dVertex
 10
107.1356500770926
 20
83.50813612366395
 30
0.0
  0
SEQEND
  5
2E4
330
2E1
100
AcDbEntity
  8
Ebene 5
370
    18
  0
POLYLINE
  5
2E5
330
1F
100
AcDbEntity
  8
Ebene 5
 62
     7
370
    18
100
AcDb2dPolyline
 66
     1
 10
0.0
 20
0.0
 30
0.0
  0
VERTEX
  5
2E6
330
2E5
100
AcDbEntity
  8
Ebene 5
 62
     7
370
    18
100
AcDbVertex
100
AcDb2dVertex
 10
19.86581171151028
 20
90.6336318164561
 30
0.0
  0
VERTEX
  5
2E7
330
2E5
100
AcDbEntity
  8
Ebene 5
 62
     7
370
    18
100
AcDbVertex
100
AcDb2dVertex
 10
28.52782100435335
 20
90.6336318164561
 30
0.0
  0
SEQEND
  5
2E8
330
2E5
100
AcDbEntity
  8
Ebene 5
370
    18
  0
POLYLINE
  5
2E9
330
1F
100
AcDbEntity
  8
Ebene 5
 62
     7
370
    18
100
AcDb2dPolyline
 66
     1
 10
0.0
 20
0.0
 30
0.0
  0
VERTEX
  5
2EA
330
2E9
100
AcDbEntity
  8
Ebene 5
 62
     7
370
    18
100
AcDbVertex
100
AcDb2dVertex
 10
19.86581171151028
 20
92.48399382225732
 30
0.0
  0
VERTEX
  5
2EB
330
2E9
100
AcDbEntity
  8
Ebene 5
 62
     7
370
    18
100
AcDbVertex
100
AcDb2dVertex
 10
19.86581171151028
 20
90.6336318164561
 30
0.0
  0
SEQEND
  5
2EC
330
2E9
100
AcDbEntity
  8
Ebene 5
370
    18
  0
POLYLINE
  5
2ED
330
1F
100
AcDbEntity
  8
Ebene 5
 62
     7
370
    18
100
AcDb2dPolyline
 66
     1
 10
0.0
 20
0.0
 30
0.0
  0
VERTEX
  5
2EE
330
2ED
100
AcDbEntity
  8
Ebene 5
 62
     7
370
    18
100
AcDbVertex
100
AcDb2dVertex
 10
28.25927563412024
 20
92.48399382225732
 30
0.0
  0
VERTEX
  5
2EF
330
2ED
100
AcDbEntity
  8
Ebene 5
 62
     7
370
    18
100
AcDbVertex
100
AcDb2dVertex
 10
19.86581171151028
 20
92.48399382225732
 30
0.0
  0
SEQEND
  5
2F0
330
2ED
100
AcDbEntity
  8
Ebene 5
370
    18
  0
SPLINE
  5
2F1
330
1F
100
AcDbEntity
  8
Ebene 5
 62
     7
370
    18
100
AcDbSpline
210
0.0
220
0.0
230
1.0
 70
     8
 71
     3
 72
     8
 73
     4
 74
     0
 42
0.0000000001
 43
0.0000000001
 40
0.0
 40
0.0
 40
0.0
 40
0.0
 40
1.0
 40
1.0
 40
1.0
 40
1.0
 10
97.94998592503934
 20
87.2340093488995
 30
0.0
 10
97.94946916037564
 20
89.06645684635933
 30
0.0
 10
96.47169447709798
 20
90.5523275093682
 30
0.0
 10
94.64200305784452
 20
90.56507437107267
 30
0.0
  0
SPLINE
  5
2F2
330
1F
100
AcDbEntity
  8
Ebene 5
 62
     7
370
    18
100
AcDbSpline
210
0.0
220
0.0
230
1.0
 70
     8
 71
     3
 72
     8
 73
     4
 74
     0
 42
0.0000000001
 43
0.0000000001
 40
0.0
 40
0.0
 40
0.0
 40
0.0
 40
1.0
 40
1.0
 40
1.0
 40
1.0
 10
97.95084719947883
 20
86.37790255604602
 30
0.0
 10
97.95084719947883
 20
86.09712708877215
 30
0.0
 10
98.06487993526736
 20
85.84253436445879
 30
0.0
 10
98.24884815554252
 20
85.65787712463204
 30
0.0
  0
SPLINE
  5
2F3
330
1F
100
AcDbEntity
  8
Ebene 5
 62
     7
370
    18
100
AcDbSpline
210
0.0
220
0.0
230
1.0
 70
     8
 71
     3
 72
     8
 73
     4
 74
     0
 42
0.0000000001
 43
0.0000000001
 40
0.0
 40
0.0
 40
0.0
 40
0.0
 40
1.0
 40
1.0
 40
1.0
 40
1.0
 10
98.24884815554252
 20
85.65787712463204
 30
0.0
 10
98.4483193157285
 20
85.45875047422184
 30
0.0
 10
98.70790743179091
 20
85.35953165879255
 30
0.0
 10
98.9690458418444
 20
85.35953165879255
 30
0.0
  0
POLYLINE
  5
2F4
330
1F
100
AcDbEntity
  8
Ebene 5
 62
     7
370
    18
100
AcDb2dPolyline
 66
     1
 10
0.0
 20
0.0
 30
0.0
  0
VERTEX
  5
2F5
330
2F4
100
AcDbEntity
  8
Ebene 5
 62
     7
370
    18
100
AcDbVertex
100
AcDb2dVertex
 10
97.95084719947883
 20
87.23297581957212
 30
0.0
  0
VERTEX
  5
2F6
330
2F4
100
AcDbEntity
  8
Ebene 5
 62
     7
370
    18
100
AcDbVertex
100
AcDb2dVertex
 10
97.95084719947883
 20
86.37790255604602
 30
0.0
  0
SEQEND
  5
2F7
330
2F4
100
AcDbEntity
  8
Ebene 5
370
    18
  0
SPLINE
  5
2F8
330
1F
100
AcDbEntity
  8
Ebene 5
 62
     7
370
    18
100
AcDbSpline
210
0.0
220
0.0
230
1.0
 70
     8
 71
     3
 72
     8
 73
     4
 74
     0
 42
0.0000000001
 43
0.0000000001
 40
0.0
 40
0.0
 40
0.0
 40
0.0
 40
1.0
 40
1.0
 40
1.0
 40
1.0
 10
34.92175018824235
 20
90.95230335906756
 30
0.0
 10
35.80541776315953
 20
90.6877198512561
 30
0.0
 10
36.6971813178079
 20
90.5626628026421
 30
0.0
 10
37.5064347811531
 20
90.56507437107267
 30
0.0
  0
SPLINE
  5
2F9
330
1F
100
AcDbEntity
  8
Ebene 5
 62
     7
370
    18
100
AcDbSpline
210
0.0
220
0.0
230
1.0
 70
     8
 71
     3
 72
     8
 73
     4
 74
     0
 42
0.0000000001
 43
0.0000000001
 40
0.0
 40
0.0
 40
0.0
 40
0.0
 40
1.0
 40
1.0
 40
1.0
 40
1.0
 10
31.36055263583735
 20
92.0189056249325
 30
0.0
 10
30.29997929104885
 20
92.33585461866497
 30
0.0
 10
29.22975967253805
 20
92.48743892001528
 30
0.0
 10
28.25875886945655
 20
92.48399382225732
 30
0.0
  0
POLYLINE
  5
2FA
330
1F
100
AcDbEntity
  8
Ebene 5
 62
     7
370
    18
100
AcDb2dPolyline
 66
     1
 10
0.0
 20
0.0
 30
0.0
  0
VERTEX
  5
2FB
330
2FA
100
AcDbEntity
  8
Ebene 5
 62
     7
370
    18
100
AcDbVertex
100
AcDb2dVertex
 10
31.36348096893162
 20
92.01718307605351
 30
0.0
  0
VERTEX
  5
2FC
330
2FA
100
AcDbEntity
  8
Ebene 5
 62
     7
370
    18
100
AcDbVertex
100
AcDb2dVertex
 10
34.92175018824235
 20
90.95230335906756
 30
0.0
  0
SEQEND
  5
2FD
330
2FA
100
AcDbEntity
  8
Ebene 5
370
    18
  0
SPLINE
  5
2FE
330
1F
100
AcDbEntity
  8
Ebene 5
 62
     7
370
    18
100
AcDbSpline
210
0.0
220
0.0
230
1.0
 70
     8
 71
     3
 72
     8
 73
     4
 74
     0
 42
0.0000000001
 43
0.0000000001
 40
0.0
 40
0.0
 40
0.0
 40
0.0
 40
1.0
 40
1.0
 40
1.0
 40
1.0
 10
97.94998592503934
 20
87.2340093488995
 30
0.0
 10
97.94946916037564
 20
89.06645684635933
 30
0.0
 10
96.47169447709798
 20
90.5523275093682
 30
0.0
 10
94.64200305784452
 20
90.56507437107267
 30
0.0
  0
SPLINE
  5
2FF
330
1F
100
AcDbEntity
  8
Ebene 5
 62
     7
370
    18
100
AcDbSpline
210
0.0
220
0.0
230
1.0
 70
     8
 71
     3
 72
     8
 73
     4
 74
     0
 42
0.0000000001
 43
0.0000000001
 40
0.0
 40
0.0
 40
0.0
 40
0.0
 40
1.0
 40
1.0
 40
1.0
 40
1.0
 10
96.10031293878971
 20
86.84161271426767
 30
0.0
 10
96.09876264479863
 20
85.00124149196454
 30
0.0
 10
97.59048997399604
 20
83.50916965299133
 30
0.0
 10
99.43017217674758
 20
83.50882514321553
 30
0.0
  0
POLYLINE
  5
300
330
1F
100
AcDbEntity
  8
Ebene 5
 62
     7
370
    18
100
AcDb2dPolyline
 66
     1
 10
0.0
 20
0.0
 30
0.0
  0
VERTEX
  5
301
330
300
100
AcDbEntity
  8
Ebene 5
 62
     7
370
    18
100
AcDbVertex
100
AcDb2dVertex
 10
96.09979617412601
 20
87.69634146801796
 30
0.0
  0
VERTEX
  5
302
330
300
100
AcDbEntity
  8
Ebene 5
 62
     7
370
    18
100
AcDbVertex
100
AcDb2dVertex
 10
96.09979617412601
 20
86.84092369471608
 30
0.0
  0
SEQEND
  5
303
330
300
100
AcDbEntity
  8
Ebene 5
370
    18
  0
SPLINE
  5
304
330
1F
100
AcDbEntity
  8
Ebene 5
 62
     7
370
    18
100
AcDbSpline
210
0.0
220
0.0
230
1.0
 70
     8
 71
     3
 72
     8
 73
     4
 74
     0
 42
0.0000000001
 43
0.0000000001
 40
0.0
 40
0.0
 40
0.0
 40
0.0
 40
1.0
 40
1.0
 40
1.0
 40
1.0
 10
97.95084719947883
 20
86.37790255604602
 30
0.0
 10
97.95084719947883
 20
86.09712708877215
 30
0.0
 10
98.06487993526736
 20
85.84253436445879
 30
0.0
 10
98.24884815554252
 20
85.65787712463204
 30
0.0
  0
SPLINE
  5
305
330
1F
100
AcDbEntity
  8
Ebene 5
 62
     7
370
    18
100
AcDbSpline
210
0.0
220
0.0
230
1.0
 70
     8
 71
     3
 72
     8
 73
     4
 74
     0
 42
0.0000000001
 43
0.0000000001
 40
0.0
 40
0.0
 40
0.0
 40
0.0
 40
1.0
 40
1.0
 40
1.0
 40
1.0
 10
98.24884815554252
 20
85.65787712463204
 30
0.0
 10
98.4483193157285
 20
85.45875047422184
 30
0.0
 10
98.70790743179091
 20
85.35953165879255
 30
0.0
 10
98.9690458418444
 20
85.35953165879255
 30
0.0
  0
POLYLINE
  5
306
330
1F
100
AcDbEntity
  8
Ebene 5
 62
     7
370
    18
100
AcDb2dPolyline
 66
     1
 10
0.0
 20
0.0
 30
0.0
  0
VERTEX
  5
307
330
306
100
AcDbEntity
  8
Ebene 5
 62
     7
370
    18
100
AcDbVertex
100
AcDb2dVertex
 10
97.95084719947883
 20
87.23297581957212
 30
0.0
  0
VERTEX
  5
308
330
306
100
AcDbEntity
  8
Ebene 5
 62
     7
370
    18
100
AcDbVertex
100
AcDb2dVertex
 10
97.95084719947883
 20
86.37790255604602
 30
0.0
  0
SEQEND
  5
309
330
306
100
AcDbEntity
  8
Ebene 5
370
    18
  0
SPLINE
  5
30A
330
1F
100
AcDbEntity
  8
Ebene 5
 62
     7
370
    18
100
AcDbSpline
210
0.0
220
0.0
230
1.0
 70
     8
 71
     3
 72
     8
 73
     4
 74
     0
 42
0.0000000001
 43
0.0000000001
 40
0.0
 40
0.0
 40
0.0
 40
0.0
 40
1.0
 40
1.0
 40
1.0
 40
1.0
 10
96.09979617412601
 20
87.69634146801796
 30
0.0
 10
96.09979617412601
 20
87.97677242551605
 30
0.0
 10
95.98593569322539
 20
88.23136514982941
 30
0.0
 10
95.80162296317442
 20
88.41567787988036
 30
0.0
  0
SPLINE
  5
30B
330
1F
100
AcDbEntity
  8
Ebene 5
 62
     7
370
    18
100
AcDbSpline
210
0.0
220
0.0
230
1.0
 70
     8
 71
     3
 72
     8
 73
     4
 74
     0
 42
0.0000000001
 43
0.0000000001
 40
0.0
 40
0.0
 40
0.0
 40
0.0
 40
1.0
 40
1.0
 40
1.0
 40
1.0
 10
95.80110619851074
 20
88.41567787988036
 30
0.0
 10
95.60249631276425
 20
88.61446002051476
 30
0.0
 10
95.34204692226234
 20
88.71402334571985
 30
0.0
 10
95.08194204153624
 20
88.71402334571985
 30
0.0
  0
SPLINE
  5
30C
330
1F
100
AcDbEntity
  8
Ebene 5
 62
     7
370
    18
100
AcDbSpline
210
0.0
220
0.0
230
1.0
 70
     8
 71
     3
 72
     8
 73
     4
 74
     0
 42
0.0000000001
 43
0.0000000001
 40
0.0
 40
0.0
 40
0.0
 40
0.0
 40
1.0
 40
1.0
 40
1.0
 40
1.0
 10
30.82122258182845
 20
89.2046052664536
 30
0.0
 10
31.88179592661696
 20
88.88731176294532
 30
0.0
 10
32.95201554512776
 20
88.73676099092239
 30
0.0
 10
33.92473889708824
 20
88.73986157890457
 30
0.0
  0
SPLINE
  5
30D
330
1F
100
AcDbEntity
  8
Ebene 5
 62
     7
370
    18
100
AcDbSpline
210
0.0
220
0.0
230
1.0
 70
     8
 71
     3
 72
     8
 73
     4
 74
     0
 42
0.0000000001
 43
0.0000000001
 40
0.0
 40
0.0
 40
0.0
 40
0.0
 40
1.0
 40
1.0
 40
1.0
 40
1.0
 10
27.27311640090371
 20
90.24020165249688
 30
0.0
 10
26.38875980643494
 20
90.50444065053253
 30
0.0
 10
25.49665174201076
 20
90.63122024802553
 30
0.0
 10
24.68705376888976
 20
90.62880867959495
 30
0.0
  0
POLYLINE
  5
30E
330
1F
100
AcDbEntity
  8
Ebene 5
 62
     7
370
    18
100
AcDb2dPolyline
 66
     1
 10
0.0
 20
0.0
 30
0.0
  0
VERTEX
  5
30F
330
30E
100
AcDbEntity
  8
Ebene 5
 62
     7
370
    18
100
AcDbVertex
100
AcDb2dVertex
 10
27.27311640090371
 20
90.24020165249688
 30
0.0
  0
VERTEX
  5
310
330
30E
100
AcDbEntity
  8
Ebene 5
 62
     7
370
    18
100
AcDbVertex
100
AcDb2dVertex
 10
30.81881101339788
 20
89.20701683488417
 30
0.0
  0
SEQEND
  5
311
330
30E
100
AcDbEntity
  8
Ebene 5
370
    18
  0
POLYLINE
  5
312
330
1F
100
AcDbEntity
  8
Ebene 5
 62
     7
370
    18
100
AcDb2dPolyline
 66
     1
 10
0.0
 20
0.0
 30
0.0
  0
VERTEX
  5
313
330
312
100
AcDbEntity
  8
Ebene 5
 62
     7
370
    18
100
AcDbVertex
100
AcDb2dVertex
 10
25.3676328309751
 20
93.97330958302416
 30
0.0
  0
VERTEX
  5
314
330
312
100
AcDbEntity
  8
Ebene 5
 62
     7
370
    18
100
AcDbVertex
100
AcDb2dVertex
 10
19.86047180998544
 20
93.97330958302416
 30
0.0
  0
SEQEND
  5
315
330
312
100
AcDbEntity
  8
Ebene 5
370
    18
  0
POLYLINE
  5
316
330
1F
100
AcDbEntity
  8
Ebene 5
 62
     7
370
    18
100
AcDb2dPolyline
 66
     1
 10
0.0
 20
0.0
 30
0.0
  0
VERTEX
  5
317
330
316
100
AcDbEntity
  8
Ebene 5
 62
     7
370
    18
100
AcDbVertex
100
AcDb2dVertex
 10
25.3676328309751
 20
93.97330958302416
 30
0.0
  0
VERTEX
  5
318
330
316
100
AcDbEntity
  8
Ebene 5
 62
     7
370
    18
100
AcDbVertex
100
AcDb2dVertex
 10
25.3676328309751
 20
93.39763374766876
 30
0.0
  0
SEQEND
  5
319
330
316
100
AcDbEntity
  8
Ebene 5
370
    18
  0
SPLINE
  5
31A
330
1F
100
AcDbEntity
  8
Ebene 5
 62
     7
370
    18
100
AcDbSpline
210
0.0
220
0.0
230
1.0
 70
     8
 71
     3
 72
     8
 73
     4
 74
     0
 42
0.0000000001
 43
0.0000000001
 40
0.0
 40
0.0
 40
0.0
 40
0.0
 40
1.0
 40
1.0
 40
1.0
 40
1.0
 10
21.16736964446821
 20
98.57940528541894
 30
0.0
 10
20.44562166417523
 20
98.57940528541894
 30
0.0
 10
19.86047180998544
 20
97.99442768611705
 30
0.0
 10
19.86047180998544
 20
97.27233519604827
 30
0.0
  0
POLYLINE
  5
31B
330
1F
100
AcDbEntity
  8
Ebene 5
 62
     7
370
    18
100
AcDb2dPolyline
 66
     1
 10
0.0
 20
0.0
 30
0.0
  0
VERTEX
  5
31C
330
31B
100
AcDbEntity
  8
Ebene 5
 62
     7
370
    18
100
AcDbVertex
100
AcDb2dVertex
 10
19.86047180998544
 20
97.27233519604827
 30
0.0
  0
VERTEX
  5
31D
330
31B
100
AcDbEntity
  8
Ebene 5
 62
     7
370
    18
100
AcDbVertex
100
AcDb2dVertex
 10
19.86047180998544
 20
93.97330958302416
 30
0.0
  0
SEQEND
  5
31E
330
31B
100
AcDbEntity
  8
Ebene 5
370
    18
  0
POLYLINE
  5
31F
330
1F
100
AcDbEntity
  8
Ebene 5
 62
     7
370
    18
100
AcDb2dPolyline
 66
     1
 10
0.0
 20
0.0
 30
0.0
  0
VERTEX
  5
320
330
31F
100
AcDbEntity
  8
Ebene 5
 62
     7
370
    18
100
AcDbVertex
100
AcDb2dVertex
 10
51.43134766394635
 20
98.57940528541894
 30
0.0
  0
VERTEX
  5
321
330
31F
100
AcDbEntity
  8
Ebene 5
 62
     7
370
    18
100
AcDbVertex
100
AcDb2dVertex
 10
21.16736964446821
 20
98.57940528541894
 30
0.0
  0
SEQEND
  5
322
330
31F
100
AcDbEntity
  8
Ebene 5
370
    18
  0
POLYLINE
  5
323
330
1F
100
AcDbEntity
  8
Ebene 5
 62
     7
370
    18
100
AcDb2dPolyline
 66
     1
 10
0.0
 20
0.0
 30
0.0
  0
VERTEX
  5
324
330
323
100
AcDbEntity
  8
Ebene 5
 62
     7
370
    18
100
AcDbVertex
100
AcDb2dVertex
 10
105.1571304346952
 20
86.0206459185454
 30
0.0
  0
VERTEX
  5
325
330
323
100
AcDbEntity
  8
Ebene 5
 62
     7
370
    18
100
AcDbVertex
100
AcDb2dVertex
 10
99.68252558751827
 20
86.0206459185454
 30
0.0
  0
SEQEND
  5
326
330
323
100
AcDbEntity
  8
Ebene 5
370
    18
  0
POLYLINE
  5
327
330
1F
100
AcDbEntity
  8
Ebene 5
 62
     7
370
    18
100
AcDb2dPolyline
 66
     1
 10
0.0
 20
0.0
 30
0.0
  0
VERTEX
  5
328
330
327
100
AcDbEntity
  8
Ebene 5
 62
     7
370
    18
100
AcDbVertex
100
AcDb2dVertex
 10
105.1571304346952
 20
86.01995689899381
 30
0.0
  0
VERTEX
  5
329
330
327
100
AcDbEntity
  8
Ebene 5
 62
     7
370
    18
100
AcDbVertex
100
AcDb2dVertex
 10
105.1571304346952
 20
85.35953165879255
 30
0.0
  0
SEQEND
  5
32A
330
327
100
AcDbEntity
  8
Ebene 5
370
    18
  0
POLYLINE
  5
32B
330
1F
100
AcDbEntity
  8
Ebene 5
 62
     7
370
    18
100
AcDb2dPolyline
 66
     1
 10
0.0
 20
0.0
 30
0.0
  0
VERTEX
  5
32C
330
32B
100
AcDbEntity
  8
Ebene 5
 62
     7
370
    18
100
AcDbVertex
100
AcDb2dVertex
 10
99.68252558751827
 20
86.0206459185454
 30
0.0
  0
VERTEX
  5
32D
330
32B
100
AcDbEntity
  8
Ebene 5
 62
     7
370
    18
100
AcDbVertex
100
AcDb2dVertex
 10
99.68252558751827
 20
85.35953165879255
 30
0.0
  0
SEQEND
  5
32E
330
32B
100
AcDbEntity
  8
Ebene 5
370
    18
  0
SPLINE
  5
32F
330
1F
100
AcDbEntity
  8
Ebene 5
 62
     7
370
    18
100
AcDbSpline
210
0.0
220
0.0
230
1.0
 70
     8
 71
     3
 72
    11
 73
     7
 74
     0
 42
0.0000000001
 43
0.0000000001
 40
0.0
 40
0.0
 40
0.0
 40
0.0
 40
1.0
 40
1.0
 40
1.0
 40
2.0
 40
2.0
 40
2.0
 40
2.0
 10
81.8839447856729
 20
93.34285669331717
 30
0.0
 10
81.8839447856729
 20
93.34285669331717
 30
0.0
 10
81.6591521569659
 20
93.69150058642289
 30
0.0
 10
81.6591521569659
 20
93.99398016957193
 30
0.0
 10
81.6591521569659
 20
94.29680426249676
 30
0.0
 10
81.8839447856729
 20
94.6451036458267
 30
0.0
 10
81.8839447856729
 20
94.6451036458267
 30
0.0
  0
POLYLINE
  5
330
330
1F
100
AcDbEntity
  8
Ebene 5
 62
     7
370
    18
100
AcDb2dPolyline
 66
     1
 10
0.0
 20
0.0
 30
0.0
  0
VERTEX
  5
331
330
330
100
AcDbEntity
  8
Ebene 5
 62
     7
370
    18
100
AcDbVertex
100
AcDb2dVertex
 10
81.6591521569659
 20
93.69150058642289
 30
0.0
  0
VERTEX
  5
332
330
330
100
AcDbEntity
  8
Ebene 5
 62
     7
370
    18
100
AcDbVertex
100
AcDb2dVertex
 10
81.8839447856729
 20
93.34285669331717
 30
0.0
  0
SEQEND
  5
333
330
330
100
AcDbEntity
  8
Ebene 5
370
    18
  0
SPLINE
  5
334
330
1F
100
AcDbEntity
  8
Ebene 5
 62
     7
370
    18
100
AcDbSpline
210
0.0
220
0.0
230
1.0
 70
     8
 71
     3
 72
    11
 73
     7
 74
     0
 42
0.0000000001
 43
0.0000000001
 40
0.0
 40
0.0
 40
0.0
 40
0.0
 40
1.0
 40
1.0
 40
1.0
 40
2.0
 40
2.0
 40
2.0
 40
2.0
 10
81.8839447856729
 20
97.24856402151833
 30
0.0
 10
81.8839447856729
 20
97.24856402151833
 30
0.0
 10
81.6591521569659
 20
96.61018740696804
 30
0.0
 10
81.6591521569659
 20
95.94735059833621
 30
0.0
 10
81.6591521569659
 20
95.28382477015279
 30
0.0
 10
81.8839447856729
 20
94.6451036458267
 30
0.0
 10
81.8839447856729
 20
94.6451036458267
 30
0.0
  0
SPLINE
  5
335
330
1F
100
AcDbEntity
  8
Ebene 5
 62
     7
370
    18
100
AcDbSpline
210
0.0
220
0.0
230
1.0
 70
     8
 71
     3
 72
    11
 73
     7
 74
     0
 42
0.0000000001
 43
0.0000000001
 40
0.0
 40
0.0
 40
0.0
 40
0.0
 40
1.0
 40
1.0
 40
1.0
 40
2.0
 40
2.0
 40
2.0
 40
2.0
 10
81.8839447856729
 20
98.55081097402785
 30
0.0
 10
81.8839447856729
 20
98.55081097402785
 30
0.0
 10
81.6591521569659
 20
98.20182257114634
 30
0.0
 10
81.6591521569659
 20
97.90003200754889
 30
0.0
 10
81.6591521569659
 20
97.59755242439985
 30
0.0
 10
81.8839447856729
 20
97.24856402151833
 30
0.0
 10
81.8839447856729
 20
97.24856402151833
 30
0.0
  0
POLYLINE
  5
336
330
1F
100
AcDbEntity
  8
Ebene 5
 62
     7
370
    18
100
AcDb2dPolyline
 66
     1
 10
0.0
 20
0.0
 30
0.0
  0
VERTEX
  5
337
330
336
100
AcDbEntity
  8
Ebene 5
 62
     7
370
    18
100
AcDbVertex
100
AcDb2dVertex
 10
81.6591521569659
 20
93.69150058642289
 30
0.0
  0
VERTEX
  5
338
330
336
100
AcDbEntity
  8
Ebene 5
 62
     7
370
    18
100
AcDbVertex
100
AcDb2dVertex
 10
81.6591521569659
 20
98.20182257114634
 30
0.0
  0
SEQEND
  5
339
330
336
100
AcDbEntity
  8
Ebene 5
370
    18
  0
POLYLINE
  5
33A
330
1F
100
AcDbEntity
  8
Ebene 5
 62
     7
370
    18
100
AcDb2dPolyline
 66
     1
 10
0.0
 20
0.0
 30
0.0
  0
VERTEX
  5
33B
330
33A
100
AcDbEntity
  8
Ebene 5
 62
     7
370
    18
100
AcDbVertex
100
AcDb2dVertex
 10
81.6591521569659
 20
98.20182257114634
 30
0.0
  0
VERTEX
  5
33C
330
33A
100
AcDbEntity
  8
Ebene 5
 62
     7
370
    18
100
AcDbVertex
100
AcDb2dVertex
 10
81.8839447856729
 20
98.55081097402785
 30
0.0
  0
SEQEND
  5
33D
330
33A
100
AcDbEntity
  8
Ebene 5
370
    18
  0
SPLINE
  5
33E
330
1F
100
AcDbEntity
  8
Ebene 5
 62
     7
370
    18
100
AcDbSpline
210
0.0
220
0.0
230
1.0
 70
     8
 71
     3
 72
    11
 73
     7
 74
     0
 42
0.0000000001
 43
0.0000000001
 40
0.0
 40
0.0
 40
0.0
 40
0.0
 40
1.0
 40
1.0
 40
1.0
 40
2.0
 40
2.0
 40
2.0
 40
2.0
 10
83.44354054070216
 20
98.55081097402785
 30
0.0
 10
83.44354054070216
 20
98.55081097402785
 30
0.0
 10
83.66816091452127
 20
98.20182257114634
 30
0.0
 10
83.66816091452127
 20
97.90003200754889
 30
0.0
 10
83.66816091452127
 20
97.59755242439985
 30
0.0
 10
83.44354054070216
 20
97.24856402151833
 30
0.0
 10
83.44354054070216
 20
97.24856402151833
 30
0.0
  0
POLYLINE
  5
33F
330
1F
100
AcDbEntity
  8
Ebene 5
 62
     7
370
    18
100
AcDb2dPolyline
 66
     1
 10
0.0
 20
0.0
 30
0.0
  0
VERTEX
  5
340
330
33F
100
AcDbEntity
  8
Ebene 5
 62
     7
370
    18
100
AcDbVertex
100
AcDb2dVertex
 10
83.66816091452127
 20
98.20182257114634
 30
0.0
  0
VERTEX
  5
341
330
33F
100
AcDbEntity
  8
Ebene 5
 62
     7
370
    18
100
AcDbVertex
100
AcDb2dVertex
 10
83.44354054070216
 20
98.55081097402785
 30
0.0
  0
SEQEND
  5
342
330
33F
100
AcDbEntity
  8
Ebene 5
370
    18
  0
SPLINE
  5
343
330
1F
100
AcDbEntity
  8
Ebene 5
 62
     7
370
    18
100
AcDbSpline
210
0.0
220
0.0
230
1.0
 70
     8
 71
     3
 72
    11
 73
     7
 74
     0
 42
0.0000000001
 43
0.0000000001
 40
0.0
 40
0.0
 40
0.0
 40
0.0
 40
1.0
 40
1.0
 40
1.0
 40
2.0
 40
2.0
 40
2.0
 40
2.0
 10
83.44354054070216
 20
94.6451036458267
 30
0.0
 10
83.44354054070216
 20
94.6451036458267
 30
0.0
 10
83.66816091452127
 20
95.28382477015279
 30
0.0
 10
83.66816091452127
 20
95.94735059833621
 30
0.0
 10
83.66816091452127
 20
96.61018740696804
 30
0.0
 10
83.44354054070216
 20
97.24856402151833
 30
0.0
 10
83.44354054070216
 20
97.24856402151833
 30
0.0
  0
SPLINE
  5
344
330
1F
100
AcDbEntity
  8
Ebene 5
 62
     7
370
    18
100
AcDbSpline
210
0.0
220
0.0
230
1.0
 70
     8
 71
     3
 72
    11
 73
     7
 74
     0
 42
0.0000000001
 43
0.0000000001
 40
0.0
 40
0.0
 40
0.0
 40
0.0
 40
1.0
 40
1.0
 40
1.0
 40
2.0
 40
2.0
 40
2.0
 40
2.0
 10
83.44354054070216
 20
93.34285669331717
 30
0.0
 10
83.44354054070216
 20
93.34285669331717
 30
0.0
 10
83.66816091452127
 20
93.69150058642289
 30
0.0
 10
83.66816091452127
 20
93.99398016957193
 30
0.0
 10
83.66816091452127
 20
94.29680426249676
 30
0.0
 10
83.44354054070216
 20
94.6451036458267
 30
0.0
 10
83.44354054070216
 20
94.6451036458267
 30
0.0
  0
POLYLINE
  5
345
330
1F
100
AcDbEntity
  8
Ebene 5
 62
     7
370
    18
100
AcDb2dPolyline
 66
     1
 10
0.0
 20
0.0
 30
0.0
  0
VERTEX
  5
346
330
345
100
AcDbEntity
  8
Ebene 5
 62
     7
370
    18
100
AcDbVertex
100
AcDb2dVertex
 10
83.66816091452127
 20
98.20182257114634
 30
0.0
  0
VERTEX
  5
347
330
345
100
AcDbEntity
  8
Ebene 5
 62
     7
370
    18
100
AcDbVertex
100
AcDb2dVertex
 10
83.66816091452127
 20
93.69150058642289
 30
0.0
  0
SEQEND
  5
348
330
345
100
AcDbEntity
  8
Ebene 5
370
    18
  0
POLYLINE
  5
349
330
1F
100
AcDbEntity
  8
Ebene 5
 62
     7
370
    18
100
AcDb2dPolyline
 66
     1
 10
0.0
 20
0.0
 30
0.0
  0
VERTEX
  5
34A
330
349
100
AcDbEntity
  8
Ebene 5
 62
     7
370
    18
100
AcDbVertex
100
AcDb2dVertex
 10
83.66816091452127
 20
93.69150058642289
 30
0.0
  0
VERTEX
  5
34B
330
349
100
AcDbEntity
  8
Ebene 5
 62
     7
370
    18
100
AcDbVertex
100
AcDb2dVertex
 10
83.44354054070216
 20
93.34285669331717
 30
0.0
  0
SEQEND
  5
34C
330
349
100
AcDbEntity
  8
Ebene 5
370
    18
  0
POLYLINE
  5
34D
330
1F
100
AcDbEntity
  8
Ebene 5
 62
     7
370
    18
100
AcDb2dPolyline
 66
     1
 10
0.0
 20
0.0
 30
0.0
  0
VERTEX
  5
34E
330
34D
100
AcDbEntity
  8
Ebene 5
 62
     7
370
    18
100
AcDbVertex
100
AcDb2dVertex
 10
81.8839447856729
 20
98.55081097402785
 30
0.0
  0
VERTEX
  5
34F
330
34D
100
AcDbEntity
  8
Ebene 5
 62
     7
370
    18
100
AcDbVertex
100
AcDb2dVertex
 10
83.44354054070216
 20
98.55081097402785
 30
0.0
  0
SEQEND
  5
350
330
34D
100
AcDbEntity
  8
Ebene 5
370
    18
  0
POLYLINE
  5
351
330
1F
100
AcDbEntity
  8
Ebene 5
 62
     7
370
    18
100
AcDb2dPolyline
 66
     1
 10
0.0
 20
0.0
 30
0.0
  0
VERTEX
  5
352
330
351
100
AcDbEntity
  8
Ebene 5
 62
     7
370
    18
100
AcDbVertex
100
AcDb2dVertex
 10
81.8839447856729
 20
93.34285669331717
 30
0.0
  0
VERTEX
  5
353
330
351
100
AcDbEntity
  8
Ebene 5
 62
     7
370
    18
100
AcDbVertex
100
AcDb2dVertex
 10
83.44354054070216
 20
93.34285669331717
 30
0.0
  0
SEQEND
  5
354
330
351
100
AcDbEntity
  8
Ebene 5
370
    18
  0
POLYLINE
  5
355
330
1F
100
AcDbEntity
  8
Ebene 5
 62
     7
370
    18
100
AcDb2dPolyline
 66
     1
 10
0.0
 20
0.0
 30
0.0
  0
VERTEX
  5
356
330
355
100
AcDbEntity
  8
Ebene 5
 62
     7
370
    18
100
AcDbVertex
100
AcDb2dVertex
 10
81.8839447856729
 20
94.6451036458267
 30
0.0
  0
VERTEX
  5
357
330
355
100
AcDbEntity
  8
Ebene 5
 62
     7
370
    18
100
AcDbVertex
100
AcDb2dVertex
 10
83.44354054070216
 20
94.6451036458267
 30
0.0
  0
SEQEND
  5
358
330
355
100
AcDbEntity
  8
Ebene 5
370
    18
  0
POLYLINE
  5
359
330
1F
100
AcDbEntity
  8
Ebene 5
 62
     7
370
    18
100
AcDb2dPolyline
 66
     1
 10
0.0
 20
0.0
 30
0.0
  0
VERTEX
  5
35A
330
359
100
AcDbEntity
  8
Ebene 5
 62
     7
370
    18
100
AcDbVertex
100
AcDb2dVertex
 10
81.8839447856729
 20
97.24856402151833
 30
0.0
  0
VERTEX
  5
35B
330
359
100
AcDbEntity
  8
Ebene 5
 62
     7
370
    18
100
AcDbVertex
100
AcDb2dVertex
 10
83.44354054070216
 20
97.24856402151833
 30
0.0
  0
SEQEND
  5
35C
330
359
100
AcDbEntity
  8
Ebene 5
370
    18
  0
POLYLINE
  5
35D
330
1F
100
AcDbEntity
  8
Ebene 5
 62
     7
370
    18
100
AcDb2dPolyline
 66
     1
 10
0.0
 20
0.0
 30
0.0
  0
VERTEX
  5
35E
330
35D
100
AcDbEntity
  8
Ebene 5
 62
     7
370
    18
100
AcDbVertex
100
AcDb2dVertex
 10
87.01851848413901
 20
97.42736459515655
 30
0.0
  0
VERTEX
  5
35F
330
35D
100
AcDbEntity
  8
Ebene 5
 62
     7
370
    18
100
AcDbVertex
100
AcDb2dVertex
 10
87.01851848413901
 20
94.46595856241268
 30
0.0
  0
SEQEND
  5
360
330
35D
100
AcDbEntity
  8
Ebene 5
370
    18
  0
POLYLINE
  5
361
330
1F
100
AcDbEntity
  8
Ebene 5
 62
     7
370
    18
100
AcDb2dPolyline
 66
     1
 10
0.0
 20
0.0
 30
0.0
  0
VERTEX
  5
362
330
361
100
AcDbEntity
  8
Ebene 5
 62
     7
370
    18
100
AcDbVertex
100
AcDb2dVertex
 10
86.53465450403328
 20
97.42736459515655
 30
0.0
  0
VERTEX
  5
363
330
361
100
AcDbEntity
  8
Ebene 5
 62
     7
370
    18
100
AcDbVertex
100
AcDb2dVertex
 10
86.53465450403328
 20
94.46595856241268
 30
0.0
  0
SEQEND
  5
364
330
361
100
AcDbEntity
  8
Ebene 5
370
    18
  0
POLYLINE
  5
365
330
1F
100
AcDbEntity
  8
Ebene 5
 62
     7
370
    18
100
AcDb2dPolyline
 66
     1
 10
0.0
 20
0.0
 30
0.0
  0
VERTEX
  5
366
330
365
100
AcDbEntity
  8
Ebene 5
 62
     7
370
    18
100
AcDbVertex
100
AcDb2dVertex
 10
86.05113503370336
 20
97.42736459515655
 30
0.0
  0
VERTEX
  5
367
330
365
100
AcDbEntity
  8
Ebene 5
 62
     7
370
    18
100
AcDbVertex
100
AcDb2dVertex
 10
86.05113503370336
 20
94.46595856241268
 30
0.0
  0
SEQEND
  5
368
330
365
100
AcDbEntity
  8
Ebene 5
370
    18
  0
POLYLINE
  5
369
330
1F
100
AcDbEntity
  8
Ebene 5
 62
     7
370
    18
100
AcDb2dPolyline
 66
     1
 10
0.0
 20
0.0
 30
0.0
  0
VERTEX
  5
36A
330
369
100
AcDbEntity
  8
Ebene 5
 62
     7
370
    18
100
AcDbVertex
100
AcDb2dVertex
 10
85.56675428893395
 20
97.42736459515655
 30
0.0
  0
VERTEX
  5
36B
330
369
100
AcDbEntity
  8
Ebene 5
 62
     7
370
    18
100
AcDbVertex
100
AcDb2dVertex
 10
85.56675428893395
 20
94.46595856241268
 30
0.0
  0
SEQEND
  5
36C
330
369
100
AcDbEntity
  8
Ebene 5
370
    18
  0
POLYLINE
  5
36D
330
1F
100
AcDbEntity
  8
Ebene 5
 62
     7
370
    18
100
AcDb2dPolyline
 66
     1
 10
0.0
 20
0.0
 30
0.0
  0
VERTEX
  5
36E
330
36D
100
AcDbEntity
  8
Ebene 5
 62
     7
370
    18
100
AcDbVertex
100
AcDb2dVertex
 10
85.08426834793141
 20
97.42736459515655
 30
0.0
  0
VERTEX
  5
36F
330
36D
100
AcDbEntity
  8
Ebene 5
 62
     7
370
    18
100
AcDbVertex
100
AcDb2dVertex
 10
85.08426834793141
 20
94.46595856241268
 30
0.0
  0
SEQEND
  5
370
330
36D
100
AcDbEntity
  8
Ebene 5
370
    18
  0
POLYLINE
  5
371
330
1F
100
AcDbEntity
  8
Ebene 5
 62
     7
370
    18
100
AcDb2dPolyline
 66
     1
 10
0.0
 20
0.0
 30
0.0
  0
VERTEX
  5
372
330
371
100
AcDbEntity
  8
Ebene 5
 62
     7
370
    18
100
AcDbVertex
100
AcDb2dVertex
 10
84.599887603162
 20
97.42736459515655
 30
0.0
  0
VERTEX
  5
373
330
371
100
AcDbEntity
  8
Ebene 5
 62
     7
370
    18
100
AcDbVertex
100
AcDb2dVertex
 10
84.599887603162
 20
94.46595856241268
 30
0.0
  0
SEQEND
  5
374
330
371
100
AcDbEntity
  8
Ebene 5
370
    18
  0
POLYLINE
  5
375
330
1F
100
AcDbEntity
  8
Ebene 5
 62
     7
370
    18
100
AcDb2dPolyline
 66
     1
 10
0.0
 20
0.0
 30
0.0
  0
VERTEX
  5
376
330
375
100
AcDbEntity
  8
Ebene 5
 62
     7
370
    18
100
AcDbVertex
100
AcDb2dVertex
 10
84.11636813283208
 20
97.42736459515655
 30
0.0
  0
VERTEX
  5
377
330
375
100
AcDbEntity
  8
Ebene 5
 62
     7
370
    18
100
AcDbVertex
100
AcDb2dVertex
 10
84.11636813283208
 20
94.46595856241268
 30
0.0
  0
SEQEND
  5
378
330
375
100
AcDbEntity
  8
Ebene 5
370
    18
  0
POLYLINE
  5
37A
330
1F
100
AcDbEntity
  8
Ebene 4
 62
     7
370
     9
100
AcDb2dPolyline
 66
     1
 10
0.0
 20
0.0
 30
0.0
  0
VERTEX
  5
37B
330
37A
100
AcDbEntity
  8
Ebene 4
 62
     7
370
     9
100
AcDbVertex
100
AcDb2dVertex
 10
116.5028708809904
 20
80.73793301648695
 30
0.0
  0
VERTEX
  5
37C
330
37A
100
AcDbEntity
  8
Ebene 4
 62
     7
370
     9
100
AcDbVertex
100
AcDb2dVertex
 10
116.5028708809904
 20
65.56021033401093
 30
0.0
  0
SEQEND
  5
37D
330
37A
100
AcDbEntity
  8
Ebene 4
370
     9
  0
POLYLINE
  5
37E
330
1F
100
AcDbEntity
  8
Ebene 4
370
     0
100
AcDb2dPolyline
 66
     1
 10
0.0
 20
0.0
 30
0.0
  0
VERTEX
  5
37F
330
37E
100
AcDbEntity
  8
Ebene 4
370
     0
100
AcDbVertex
100
AcDb2dVertex
 10
115.6347062459841
 20
77.49437347736601
 30
0.0
  0
VERTEX
  5
380
330
37E
100
AcDbEntity
  8
Ebene 4
370
     0
100
AcDbVertex
100
AcDb2dVertex
 10
116.5028708809904
 20
80.73793301648695
 30
0.0
  0
VERTEX
  5
381
330
37E
100
AcDbEntity
  8
Ebene 4
370
     0
100
AcDbVertex
100
AcDb2dVertex
 10
117.3727580648757
 20
77.49437347736601
 30
0.0
  0
VERTEX
  5
382
330
37E
100
AcDbEntity
  8
Ebene 4
370
     0
100
AcDbVertex
100
AcDb2dVertex
 10
115.6347062459841
 20
77.49437347736601
 30
0.0
  0
VERTEX
  5
383
330
37E
100
AcDbEntity
  8
Ebene 4
370
     0
100
AcDbVertex
100
AcDb2dVertex
 10
115.6347062459841
 20
77.49437347736601
 30
0.0
  0
SEQEND
  5
384
330
37E
100
AcDbEntity
  8
Ebene 4
370
     0
  0
HATCH
  5
385
330
1F
100
AcDbEntity
  8
Ebene 4
 62
     7
100
AcDbHatch
 10
0.0
 20
0.0
 30
0.0
210
0.0
220
0.0
230
1.0
  2
SOLID
 70
     1
 71
     0
 91
        1
 92
        1
 93
        3
 72
     1
 10
115.6347062459841
 20
77.49437347736601
 11
116.5028708809904
 21
80.73793301648695
 72
     1
 10
116.5028708809904
 20
80.73793301648695
 11
117.3727580648757
 21
77.49437347736601
 72
     1
 10
117.3727580648757
 20
77.49437347736601
 11
115.6347062459841
 21
77.49437347736601
 97
        0
 75
     0
 76
     1
 98
        0
  0
MTEXT
  5
386
330
1F
100
AcDbEntity
  8
Ebene 4
 62
     7
100
AcDbMText
 10
116.0164230775662
 20
71.58499729313434
 30
0.0
 40
2.511734244163525
 41
0.0
 71
     7
 72
     1
  1
\fArial|b0|i0|c0|p34;\W1;41
 11
-4.371139000186241E-8
 21
0.999999999999999
 31
0.0
 73
     1
 44
1.0
  0
POLYLINE
  5
387
330
1F
100
AcDbEntity
  8
Ebene 4
370
     0
100
AcDb2dPolyline
 66
     1
 10
0.0
 20
0.0
 30
0.0
  0
VERTEX
  5
388
330
387
100
AcDbEntity
  8
Ebene 4
370
     0
100
AcDbVertex
100
AcDb2dVertex
 10
115.5658042908248
 20
68.60567675204906
 30
0.0
  0
VERTEX
  5
389
330
387
100
AcDbEntity
  8
Ebene 4
370
     0
100
AcDbVertex
100
AcDb2dVertex
 10
116.4339689258312
 20
65.36280623247973
 30
0.0
  0
VERTEX
  5
38A
330
387
100
AcDbEntity
  8
Ebene 4
370
     0
100
AcDbVertex
100
AcDb2dVertex
 10
117.3038561097165
 20
68.60567675204906
 30
0.0
  0
VERTEX
  5
38B
330
387
100
AcDbEntity
  8
Ebene 4
370
     0
100
AcDbVertex
100
AcDb2dVertex
 10
115.5658042908248
 20
68.60567675204906
 30
0.0
  0
VERTEX
  5
38C
330
387
100
AcDbEntity
  8
Ebene 4
370
     0
100
AcDbVertex
100
AcDb2dVertex
 10
115.5658042908248
 20
68.60567675204906
 30
0.0
  0
SEQEND
  5
38D
330
387
100
AcDbEntity
  8
Ebene 4
370
     0
  0
HATCH
  5
38E
330
1F
100
AcDbEntity
  8
Ebene 4
 62
     7
100
AcDbHatch
 10
0.0
 20
0.0
 30
0.0
210
0.0
220
0.0
230
1.0
  2
SOLID
 70
     1
 71
     0
 91
        1
 92
        1
 93
        3
 72
     1
 10
115.5658042908248
 20
68.60567675204906
 11
116.4339689258312
 21
65.36280623247973
 72
     1
 10
116.4339689258312
 20
65.36280623247973
 11
117.3038561097165
 21
68.60567675204906
 72
     1
 10
117.3038561097165
 20
68.60567675204906
 11
115.5658042908248
 21
68.60567675204906
 97
        0
 75
     0
 76
     1
 98
        0
  0
POLYLINE
  5
38F
330
1F
100
AcDbEntity
  8
Ebene 4
 62
     7
370
     9
100
AcDb2dPolyline
 66
     1
 10
0.0
 20
0.0
 30
0.0
  0
VERTEX
  5
390
330
38F
100
AcDbEntity
  8
Ebene 4
 62
     7
370
     9
100
AcDbVertex
100
AcDb2dVertex
 10
108.8974730705142
 20
65.56021033401093
 30
0.0
  0
VERTEX
  5
391
330
38F
100
AcDbEntity
  8
Ebene 4
 62
     7
370
     9
100
AcDbVertex
100
AcDb2dVertex
 10
117.189823373928
 20
65.56021033401093
 30
0.0
  0
SEQEND
  5
392
330
38F
100
AcDbEntity
  8
Ebene 4
370
     9
  0
POLYLINE
  5
393
330
1F
100
AcDbEntity
  8
Ebene 4
 62
     7
370
     9
100
AcDb2dPolyline
 66
     1
 10
0.0
 20
0.0
 30
0.0
  0
VERTEX
  5
394
330
393
100
AcDbEntity
  8
Ebene 4
 62
     7
370
     9
100
AcDbVertex
100
AcDb2dVertex
 10
117.189823373928
 20
80.73793301648695
 30
0.0
  0
VERTEX
  5
395
330
393
100
AcDbEntity
  8
Ebene 4
 62
     7
370
     9
100
AcDbVertex
100
AcDb2dVertex
 10
108.8974730705142
 20
80.73793301648695
 30
0.0
  0
SEQEND
  5
396
330
393
100
AcDbEntity
  8
Ebene 4
370
     9
  0
MTEXT
  5
397
330
1F
100
AcDbEntity
  8
Ebene 4
 62
     7
100
AcDbMText
 10
117.6194270643458
 20
93.97813271988531
 30
0.0
 40
2.511734244163525
 41
0.0
 71
     7
 72
     1
  1
\fArial|b0|i0|c0|p34;\W1;16
 11
-4.371139000186241E-8
 21
0.999999999999999
 31
0.0
 73
     1
 44
1.0
  0
POLYLINE
  5
398
330
1F
100
AcDbEntity
  8
Ebene 4
 62
     7
370
     9
100
AcDb2dPolyline
 66
     1
 10
0.0
 20
0.0
 30
0.0
  0
VERTEX
  5
399
330
398
100
AcDbEntity
  8
Ebene 4
 62
     7
370
     9
100
AcDbVertex
100
AcDb2dVertex
 10
108.8971285607384
 20
92.95321613689171
 30
0.0
  0
VERTEX
  5
39A
330
398
100
AcDbEntity
  8
Ebene 4
 62
     7
370
     9
100
AcDbVertex
100
AcDb2dVertex
 10
117.189823373928
 20
92.95321613689171
 30
0.0
  0
SEQEND
  5
39B
330
398
100
AcDbEntity
  8
Ebene 4
370
     9
  0
POLYLINE
  5
39C
330
1F
100
AcDbEntity
  8
Ebene 4
 62
     7
370
     9
100
AcDb2dPolyline
 66
     1
 10
0.0
 20
0.0
 30
0.0
  0
VERTEX
  5
39D
330
39C
100
AcDbEntity
  8
Ebene 4
 62
     7
370
     9
100
AcDbVertex
100
AcDb2dVertex
 10
117.189823373928
 20
98.87568369260364
 30
0.0
  0
VERTEX
  5
39E
330
39C
100
AcDbEntity
  8
Ebene 4
 62
     7
370
     9
100
AcDbVertex
100
AcDb2dVertex
 10
108.8971285607384
 20
98.87568369260364
 30
0.0
  0
SEQEND
  5
39F
330
39C
100
AcDbEntity
  8
Ebene 4
370
     9
  0
POLYLINE
  5
3A0
330
1F
100
AcDbEntity
  8
Ebene 4
 62
     7
370
     9
100
AcDb2dPolyline
 66
     1
 10
0.0
 20
0.0
 30
0.0
  0
VERTEX
  5
3A1
330
3A0
100
AcDbEntity
  8
Ebene 4
 62
     7
370
     9
100
AcDbVertex
100
AcDb2dVertex
 10
116.5028708809904
 20
104.6138385182646
 30
0.0
  0
VERTEX
  5
3A2
330
3A0
100
AcDbEntity
  8
Ebene 4
 62
     7
370
     9
100
AcDbVertex
100
AcDb2dVertex
 10
116.5028708809904
 20
98.87568369260364
 30
0.0
  0
SEQEND
  5
3A3
330
3A0
100
AcDbEntity
  8
Ebene 4
370
     9
  0
POLYLINE
  5
3A4
330
1F
100
AcDbEntity
  8
Ebene 4
 62
     7
370
     9
100
AcDb2dPolyline
 66
     1
 10
0.0
 20
0.0
 30
0.0
  0
VERTEX
  5
3A5
330
3A4
100
AcDbEntity
  8
Ebene 4
 62
     7
370
     9
100
AcDbVertex
100
AcDb2dVertex
 10
116.5028708809904
 20
92.95321613689171
 30
0.0
  0
VERTEX
  5
3A6
330
3A4
100
AcDbEntity
  8
Ebene 4
 62
     7
370
     9
100
AcDbVertex
100
AcDb2dVertex
 10
116.5028708809904
 20
87.03040407140396
 30
0.0
  0
SEQEND
  5
3A7
330
3A4
100
AcDbEntity
  8
Ebene 4
370
     9
  0
POLYLINE
  5
3A8
330
1F
100
AcDbEntity
  8
Ebene 4
370
     0
100
AcDb2dPolyline
 66
     1
 10
0.0
 20
0.0
 30
0.0
  0
VERTEX
  5
3A9
330
3A8
100
AcDbEntity
  8
Ebene 4
370
     0
100
AcDbVertex
100
AcDb2dVertex
 10
115.6336727166567
 20
89.70965659777077
 30
0.0
  0
VERTEX
  5
3AA
330
3A8
100
AcDbEntity
  8
Ebene 4
370
     0
100
AcDbVertex
100
AcDb2dVertex
 10
116.5028708809904
 20
92.95321613689171
 30
0.0
  0
VERTEX
  5
3AB
330
3A8
100
AcDbEntity
  8
Ebene 4
370
     0
100
AcDbVertex
100
AcDb2dVertex
 10
117.3727580648757
 20
89.70965659777077
 30
0.0
  0
VERTEX
  5
3AC
330
3A8
100
AcDbEntity
  8
Ebene 4
370
     0
100
AcDbVertex
100
AcDb2dVertex
 10
115.6336727166567
 20
89.70965659777077
 30
0.0
  0
VERTEX
  5
3AD
330
3A8
100
AcDbEntity
  8
Ebene 4
370
     0
100
AcDbVertex
100
AcDb2dVertex
 10
115.6336727166567
 20
89.70965659777077
 30
0.0
  0
SEQEND
  5
3AE
330
3A8
100
AcDbEntity
  8
Ebene 4
370
     0
  0
HATCH
  5
3AF
330
1F
100
AcDbEntity
  8
Ebene 4
 62
     7
100
AcDbHatch
 10
0.0
 20
0.0
 30
0.0
210
0.0
220
0.0
230
1.0
  2
SOLID
 70
     1
 71
     0
 91
        1
 92
        1
 93
        3
 72
     1
 10
115.6336727166567
 20
89.70965659777077
 11
116.5028708809904
 21
92.95321613689171
 72
     1
 10
116.5028708809904
 20
92.95321613689171
 11
117.3727580648757
 21
89.70965659777077
 72
     1
 10
117.3727580648757
 20
89.70965659777077
 11
115.6336727166567
 21
89.70965659777077
 97
        0
 75
     0
 76
     1
 98
        0
  0
POLYLINE
  5
3B0
330
1F
100
AcDbEntity
  8
Ebene 4
370
     0
100
AcDb2dPolyline
 66
     1
 10
0.0
 20
0.0
 30
0.0
  0
VERTEX
  5
3B1
330
3B0
100
AcDbEntity
  8
Ebene 4
370
     0
100
AcDbVertex
100
AcDb2dVertex
 10
115.6336727166567
 20
102.1182097023972
 30
0.0
  0
VERTEX
  5
3B2
330
3B0
100
AcDbEntity
  8
Ebene 4
370
     0
100
AcDbVertex
100
AcDb2dVertex
 10
116.5028708809904
 20
98.87568369260364
 30
0.0
  0
VERTEX
  5
3B3
330
3B0
100
AcDbEntity
  8
Ebene 4
370
     0
100
AcDbVertex
100
AcDb2dVertex
 10
117.3727580648757
 20
102.1182097023972
 30
0.0
  0
VERTEX
  5
3B4
330
3B0
100
AcDbEntity
  8
Ebene 4
370
     0
100
AcDbVertex
100
AcDb2dVertex
 10
115.6336727166567
 20
102.1182097023972
 30
0.0
  0
VERTEX
  5
3B5
330
3B0
100
AcDbEntity
  8
Ebene 4
370
     0
100
AcDbVertex
100
AcDb2dVertex
 10
115.6336727166567
 20
102.1182097023972
 30
0.0
  0
SEQEND
  5
3B6
330
3B0
100
AcDbEntity
  8
Ebene 4
370
     0
  0
HATCH
  5
3B7
330
1F
100
AcDbEntity
  8
Ebene 4
 62
     7
100
AcDbHatch
 10
0.0
 20
0.0
 30
0.0
210
0.0
220
0.0
230
1.0
  2
SOLID
 70
     1
 71
     0
 91
        1
 92
        1
 93
        3
 72
     1
 10
115.6336727166567
 20
102.1182097023972
 11
116.5028708809904
 21
98.87568369260364
 72
     1
 10
116.5028708809904
 20
98.87568369260364
 11
117.3727580648757
 21
102.1182097023972
 72
     1
 10
117.3727580648757
 20
102.1182097023972
 11
115.6336727166567
 21
102.1182097023972
 97
        0
 75
     0
 76
     1
 98
        0
  0
POLYLINE
  5
3B8
330
1F
100
AcDbEntity
  8
Ebene 4
 62
     7
370
     9
100
AcDb2dPolyline
 66
     1
 10
0.0
 20
0.0
 30
0.0
  0
VERTEX
  5
3B9
330
3B8
100
AcDbEntity
  8
Ebene 4
 62
     7
370
     9
100
AcDbVertex
100
AcDb2dVertex
 10
108.8971285607384
 20
104.6138385182646
 30
0.0
  0
VERTEX
  5
3BA
330
3B8
100
AcDbEntity
  8
Ebene 4
 62
     7
370
     9
100
AcDbVertex
100
AcDb2dVertex
 10
108.8971285607384
 20
98.87568369260364
 30
0.0
  0
SEQEND
  5
3BB
330
3B8
100
AcDbEntity
  8
Ebene 4
370
     9
  0
POLYLINE
  5
3BC
330
1F
100
AcDbEntity
  8
Ebene 4
 62
     7
370
     9
100
AcDb2dPolyline
 66
     1
 10
0.0
 20
0.0
 30
0.0
  0
VERTEX
  5
3BD
330
3BC
100
AcDbEntity
  8
Ebene 4
 62
     7
370
     9
100
AcDbVertex
100
AcDb2dVertex
 10
101.5683721002265
 20
104.6138385182646
 30
0.0
  0
VERTEX
  5
3BE
330
3BC
100
AcDbEntity
  8
Ebene 4
 62
     7
370
     9
100
AcDbVertex
100
AcDb2dVertex
 10
101.5683721002265
 20
98.87568369260364
 30
0.0
  0
SEQEND
  5
3BF
330
3BC
100
AcDbEntity
  8
Ebene 4
370
     9
  0
MTEXT
  5
3C0
330
1F
100
AcDbEntity
  8
Ebene 4
 62
     7
100
AcDbMText
 10
102.6260171119207
 20
102.7920708238545
 30
0.0
 40
2.511734244163525
 41
0.0
 71
     7
 72
     1
  1
\fArial|b0|i0|c0|p34;\W1;20
 73
     1
 44
1.0
  0
POLYLINE
  5
3C1
330
1F
100
AcDbEntity
  8
Ebene 4
 62
     7
370
     9
100
AcDb2dPolyline
 66
     1
 10
0.0
 20
0.0
 30
0.0
  0
VERTEX
  5
3C2
330
3C1
100
AcDbEntity
  8
Ebene 4
 62
     7
370
     9
100
AcDbVertex
100
AcDb2dVertex
 10
114.6356278961752
 20
103.9082824974341
 30
0.0
  0
VERTEX
  5
3C3
330
3C1
100
AcDbEntity
  8
Ebene 4
 62
     7
370
     9
100
AcDbVertex
100
AcDb2dVertex
 10
108.8971285607384
 20
103.9082824974341
 30
0.0
  0
SEQEND
  5
3C4
330
3C1
100
AcDbEntity
  8
Ebene 4
370
     9
  0
POLYLINE
  5
3C5
330
1F
100
AcDbEntity
  8
Ebene 4
 62
     7
370
     9
100
AcDb2dPolyline
 66
     1
 10
0.0
 20
0.0
 30
0.0
  0
VERTEX
  5
3C6
330
3C5
100
AcDbEntity
  8
Ebene 4
 62
     7
370
     9
100
AcDbVertex
100
AcDb2dVertex
 10
101.5683721002265
 20
103.9082824974341
 30
0.0
  0
VERTEX
  5
3C7
330
3C5
100
AcDbEntity
  8
Ebene 4
 62
     7
370
     9
100
AcDbVertex
100
AcDb2dVertex
 10
95.64521552496296
 20
103.9082824974341
 30
0.0
  0
SEQEND
  5
3C8
330
3C5
100
AcDbEntity
  8
Ebene 4
370
     9
  0
POLYLINE
  5
3C9
330
1F
100
AcDbEntity
  8
Ebene 4
370
     0
100
AcDb2dPolyline
 66
     1
 10
0.0
 20
0.0
 30
0.0
  0
VERTEX
  5
3CA
330
3C9
100
AcDbEntity
  8
Ebene 4
370
     0
100
AcDbVertex
100
AcDb2dVertex
 10
98.32515707088136
 20
104.7764471324404
 30
0.0
  0
VERTEX
  5
3CB
330
3C9
100
AcDbEntity
  8
Ebene 4
370
     0
100
AcDbVertex
100
AcDb2dVertex
 10
101.5683721002265
 20
103.9082824974341
 30
0.0
  0
VERTEX
  5
3CC
330
3C9
100
AcDbEntity
  8
Ebene 4
370
     0
100
AcDbVertex
100
AcDb2dVertex
 10
98.32515707088136
 20
103.0383953135487
 30
0.0
  0
VERTEX
  5
3CD
330
3C9
100
AcDbEntity
  8
Ebene 4
370
     0
100
AcDbVertex
100
AcDb2dVertex
 10
98.32515707088136
 20
104.7764471324404
 30
0.0
  0
VERTEX
  5
3CE
330
3C9
100
AcDbEntity
  8
Ebene 4
370
     0
100
AcDbVertex
100
AcDb2dVertex
 10
98.32515707088136
 20
104.7764471324404
 30
0.0
  0
SEQEND
  5
3CF
330
3C9
100
AcDbEntity
  8
Ebene 4
370
     0
  0
HATCH
  5
3D0
330
1F
100
AcDbEntity
  8
Ebene 4
 62
     7
100
AcDbHatch
 10
0.0
 20
0.0
 30
0.0
210
0.0
220
0.0
230
1.0
  2
SOLID
 70
     1
 71
     0
 91
        1
 92
        1
 93
        3
 72
     1
 10
98.32515707088136
 20
104.7764471324404
 11
101.5683721002265
 21
103.9082824974341
 72
     1
 10
101.5683721002265
 20
103.9082824974341
 11
98.32515707088136
 21
103.0383953135487
 72
     1
 10
98.32515707088136
 20
103.0383953135487
 11
98.32515707088136
 21
104.7764471324404
 97
        0
 75
     0
 76
     1
 98
        0
  0
POLYLINE
  5
3D1
330
1F
100
AcDbEntity
  8
Ebene 4
370
     0
100
AcDb2dPolyline
 66
     1
 10
0.0
 20
0.0
 30
0.0
  0
VERTEX
  5
3D2
330
3D1
100
AcDbEntity
  8
Ebene 4
370
     0
100
AcDbVertex
100
AcDb2dVertex
 10
112.1403435900835
 20
104.7764471324404
 30
0.0
  0
VERTEX
  5
3D3
330
3D1
100
AcDbEntity
  8
Ebene 4
370
     0
100
AcDbVertex
100
AcDb2dVertex
 10
108.8971285607384
 20
103.9082824974341
 30
0.0
  0
VERTEX
  5
3D4
330
3D1
100
AcDbEntity
  8
Ebene 4
370
     0
100
AcDbVertex
100
AcDb2dVertex
 10
112.1403435900835
 20
103.0383953135487
 30
0.0
  0
VERTEX
  5
3D5
330
3D1
100
AcDbEntity
  8
Ebene 4
370
     0
100
AcDbVertex
100
AcDb2dVertex
 10
112.1403435900835
 20
104.7764471324404
 30
0.0
  0
VERTEX
  5
3D6
330
3D1
100
AcDbEntity
  8
Ebene 4
370
     0
100
AcDbVertex
100
AcDb2dVertex
 10
112.1403435900835
 20
104.7764471324404
 30
0.0
  0
SEQEND
  5
3D7
330
3D1
100
AcDbEntity
  8
Ebene 4
370
     0
  0
HATCH
  5
3D8
330
1F
100
AcDbEntity
  8
Ebene 4
 62
     7
100
AcDbHatch
 10
0.0
 20
0.0
 30
0.0
210
0.0
220
0.0
230
1.0
  2
SOLID
 70
     1
 71
     0
 91
        1
 92
        1
 93
        3
 72
     1
 10
112.1403435900835
 20
104.7764471324404
 11
108.8971285607384
 21
103.9082824974341
 72
     1
 10
108.8971285607384
 20
103.9082824974341
 11
112.1403435900835
 21
103.0383953135487
 72
     1
 10
112.1403435900835
 20
103.0383953135487
 11
112.1403435900835
 21
104.7764471324404
 97
        0
 75
     0
 76
     1
 98
        0
  0
POLYLINE
  5
3D9
330
1F
100
AcDbEntity
  8
Ebene 4
 62
     7
370
     9
100
AcDb2dPolyline
 66
     1
 10
0.0
 20
0.0
 30
0.0
  0
VERTEX
  5
3DA
330
3D9
100
AcDbEntity
  8
Ebene 4
 62
     7
370
     9
100
AcDbVertex
100
AcDb2dVertex
 10
108.8974730705142
 20
65.56021033401093
 30
0.0
  0
VERTEX
  5
3DB
330
3D9
100
AcDbEntity
  8
Ebene 4
 62
     7
370
     9
100
AcDbVertex
100
AcDb2dVertex
 10
108.8974730705142
 20
54.91348022280613
 30
0.0
  0
SEQEND
  5
3DC
330
3D9
100
AcDbEntity
  8
Ebene 4
370
     9
  0
POLYLINE
  5
3DD
330
1F
100
AcDbEntity
  8
Ebene 4
 62
     7
370
     9
100
AcDb2dPolyline
 66
     1
 10
0.0
 20
0.0
 30
0.0
  0
VERTEX
  5
3DE
330
3DD
100
AcDbEntity
  8
Ebene 4
 62
     7
370
     9
100
AcDbVertex
100
AcDb2dVertex
 10
86.68778909937468
 20
70.37232288233182
 30
0.0
  0
VERTEX
  5
3DF
330
3DD
100
AcDbEntity
  8
Ebene 4
 62
     7
370
     9
100
AcDbVertex
100
AcDb2dVertex
 10
86.68778909937468
 20
54.87558414746855
 30
0.0
  0
SEQEND
  5
3E0
330
3DD
100
AcDbEntity
  8
Ebene 4
370
     9
  0
POLYLINE
  5
3E1
330
1F
100
AcDbEntity
  8
Ebene 4
 62
     7
370
     9
100
AcDb2dPolyline
 66
     1
 10
0.0
 20
0.0
 30
0.0
  0
VERTEX
  5
3E2
330
3E1
100
AcDbEntity
  8
Ebene 4
 62
     7
370
     9
100
AcDbVertex
100
AcDb2dVertex
 10
108.8974730705142
 20
55.86777230176152
 30
0.0
  0
VERTEX
  5
3E3
330
3E1
100
AcDbEntity
  8
Ebene 4
 62
     7
370
     9
100
AcDbVertex
100
AcDb2dVertex
 10
86.68778909937468
 20
55.86777230176152
 30
0.0
  0
SEQEND
  5
3E4
330
3E1
100
AcDbEntity
  8
Ebene 4
370
     9
  0
POLYLINE
  5
3E5
330
1F
100
AcDbEntity
  8
Ebene 4
370
     0
100
AcDb2dPolyline
 66
     1
 10
0.0
 20
0.0
 30
0.0
  0
VERTEX
  5
3E6
330
3E5
100
AcDbEntity
  8
Ebene 4
370
     0
100
AcDbVertex
100
AcDb2dVertex
 10
105.6539135313933
 20
56.73559242699206
 30
0.0
  0
VERTEX
  5
3E7
330
3E5
100
AcDbEntity
  8
Ebene 4
370
     0
100
AcDbVertex
100
AcDb2dVertex
 10
108.8974730705142
 20
55.86777230176152
 30
0.0
  0
VERTEX
  5
3E8
330
3E5
100
AcDbEntity
  8
Ebene 4
370
     0
100
AcDbVertex
100
AcDb2dVertex
 10
105.6539135313933
 20
54.99822962765199
 30
0.0
  0
VERTEX
  5
3E9
330
3E5
100
AcDbEntity
  8
Ebene 4
370
     0
100
AcDbVertex
100
AcDb2dVertex
 10
105.6539135313933
 20
56.73559242699206
 30
0.0
  0
VERTEX
  5
3EA
330
3E5
100
AcDbEntity
  8
Ebene 4
370
     0
100
AcDbVertex
100
AcDb2dVertex
 10
105.6539135313933
 20
56.73559242699206
 30
0.0
  0
SEQEND
  5
3EB
330
3E5
100
AcDbEntity
  8
Ebene 4
370
     0
  0
HATCH
  5
3EC
330
1F
100
AcDbEntity
  8
Ebene 4
 62
     7
100
AcDbHatch
 10
0.0
 20
0.0
 30
0.0
210
0.0
220
0.0
230
1.0
  2
SOLID
 70
     1
 71
     0
 91
        1
 92
        1
 93
        3
 72
     1
 10
105.6539135313933
 20
56.73559242699206
 11
108.8974730705142
 21
55.86777230176152
 72
     1
 10
108.8974730705142
 20
55.86777230176152
 11
105.6539135313933
 21
54.99822962765199
 72
     1
 10
105.6539135313933
 20
54.99822962765199
 11
105.6539135313933
 21
56.73559242699206
 97
        0
 75
     0
 76
     1
 98
        0
  0
POLYLINE
  5
3ED
330
1F
100
AcDbEntity
  8
Ebene 4
370
     0
100
AcDb2dPolyline
 66
     1
 10
0.0
 20
0.0
 30
0.0
  0
VERTEX
  5
3EE
330
3ED
100
AcDbEntity
  8
Ebene 4
370
     0
100
AcDbVertex
100
AcDb2dVertex
 10
89.93083187383192
 20
56.73559242699206
 30
0.0
  0
VERTEX
  5
3EF
330
3ED
100
AcDbEntity
  8
Ebene 4
370
     0
100
AcDbVertex
100
AcDb2dVertex
 10
86.68778909937468
 20
55.86777230176152
 30
0.0
  0
VERTEX
  5
3F0
330
3ED
100
AcDbEntity
  8
Ebene 4
370
     0
100
AcDbVertex
100
AcDb2dVertex
 10
89.93083187383192
 20
54.99822962765199
 30
0.0
  0
VERTEX
  5
3F1
330
3ED
100
AcDbEntity
  8
Ebene 4
370
     0
100
AcDbVertex
100
AcDb2dVertex
 10
89.93083187383192
 20
56.73559242699206
 30
0.0
  0
VERTEX
  5
3F2
330
3ED
100
AcDbEntity
  8
Ebene 4
370
     0
100
AcDbVertex
100
AcDb2dVertex
 10
89.93083187383192
 20
56.73559242699206
 30
0.0
  0
SEQEND
  5
3F3
330
3ED
100
AcDbEntity
  8
Ebene 4
370
     0
  0
HATCH
  5
3F4
330
1F
100
AcDbEntity
  8
Ebene 4
 62
     7
100
AcDbHatch
 10
0.0
 20
0.0
 30
0.0
210
0.0
220
0.0
230
1.0
  2
SOLID
 70
     1
 71
     0
 91
        1
 92
        1
 93
        3
 72
     1
 10
89.93083187383192
 20
56.73559242699206
 11
86.68778909937468
 21
55.86777230176152
 72
     1
 10
86.68778909937468
 20
55.86777230176152
 11
89.93083187383192
 21
54.99822962765199
 72
     1
 10
89.93083187383192
 20
54.99822962765199
 11
89.93083187383192
 21
56.73559242699206
 97
        0
 75
     0
 76
     1
 98
        0
  0
MTEXT
  5
3F5
330
1F
100
AcDbEntity
  8
Ebene 4
 62
     7
100
AcDbMText
 10
95.758386986312
 20
56.85031418233219
 30
0.0
 40
2.511734244163525
 41
0.0
 71
     7
 72
     1
  1
\fArial|b0|i0|c0|p34;\W1;60
 73
     1
 44
1.0
  0
POLYLINE
  5
3F6
330
1F
100
AcDbEntity
  8
Ebene 4
 62
     7
370
     9
100
AcDb2dPolyline
 66
     1
 10
0.0
 20
0.0
 30
0.0
  0
VERTEX
  5
3F7
330
3F6
100
AcDbEntity
  8
Ebene 4
 62
     7
370
     9
100
AcDbVertex
100
AcDb2dVertex
 10
144.0502170634279
 20
67.59660761874208
 30
0.0
  0
VERTEX
  5
3F8
330
3F6
100
AcDbEntity
  8
Ebene 4
 62
     7
370
     9
100
AcDbVertex
100
AcDb2dVertex
 10
144.0502170634279
 20
44.50962950353762
 30
0.0
  0
SEQEND
  5
3F9
330
3F6
100
AcDbEntity
  8
Ebene 4
370
     9
  0
POLYLINE
  5
3FA
330
1F
100
AcDbEntity
  8
Ebene 4
 62
     7
370
     9
100
AcDb2dPolyline
 66
     1
 10
0.0
 20
0.0
 30
0.0
  0
VERTEX
  5
3FB
330
3FA
100
AcDbEntity
  8
Ebene 4
 62
     7
370
     9
100
AcDbVertex
100
AcDb2dVertex
 10
211.4194482301445
 20
67.59798565784527
 30
0.0
  0
VERTEX
  5
3FC
330
3FA
100
AcDbEntity
  8
Ebene 4
 62
     7
370
     9
100
AcDbVertex
100
AcDb2dVertex
 10
211.4194482301445
 20
44.21679619411088
 30
0.0
  0
SEQEND
  5
3FD
330
3FA
100
AcDbEntity
  8
Ebene 4
370
     9
  0
POLYLINE
  5
3FE
330
1F
100
AcDbEntity
  8
Ebene 4
 62
     7
370
     9
100
AcDb2dPolyline
 66
     1
 10
0.0
 20
0.0
 30
0.0
  0
VERTEX
  5
3FF
330
3FE
100
AcDbEntity
  8
Ebene 4
 62
     7
370
     9
100
AcDbVertex
100
AcDb2dVertex
 10
208.4580421974006
 20
67.26381117532299
 30
0.0
  0
VERTEX
  5
400
330
3FE
100
AcDbEntity
  8
Ebene 4
 62
     7
370
     9
100
AcDbVertex
100
AcDb2dVertex
 10
208.4580421974006
 20
49.30968420970564
 30
0.0
  0
SEQEND
  5
401
330
3FE
100
AcDbEntity
  8
Ebene 4
370
     9
  0
POLYLINE
  5
402
330
1F
100
AcDbEntity
  8
Ebene 4
 62
     7
370
     9
100
AcDb2dPolyline
 66
     1
 10
0.0
 20
0.0
 30
0.0
  0
VERTEX
  5
403
330
402
100
AcDbEntity
  8
Ebene 4
 62
     7
370
     9
100
AcDbVertex
100
AcDb2dVertex
 10
147.0109340766201
 20
67.47706272654081
 30
0.0
  0
VERTEX
  5
404
330
402
100
AcDbEntity
  8
Ebene 4
 62
     7
370
     9
100
AcDbVertex
100
AcDb2dVertex
 10
147.0109340766201
 20
49.30968420970564
 30
0.0
  0
SEQEND
  5
405
330
402
100
AcDbEntity
  8
Ebene 4
370
     9
  0
POLYLINE
  5
406
330
1F
100
AcDbEntity
  8
Ebene 4
 62
     7
370
     9
100
AcDb2dPolyline
 66
     1
 10
0.0
 20
0.0
 30
0.0
  0
VERTEX
  5
407
330
406
100
AcDbEntity
  8
Ebene 4
 62
     7
370
     9
100
AcDbVertex
100
AcDb2dVertex
 10
147.0109340766201
 20
50.38007608310434
 30
0.0
  0
VERTEX
  5
408
330
406
100
AcDbEntity
  8
Ebene 4
 62
     7
370
     9
100
AcDbVertex
100
AcDb2dVertex
 10
208.4580421974006
 20
50.38007608310434
 30
0.0
  0
SEQEND
  5
409
330
406
100
AcDbEntity
  8
Ebene 4
370
     9
  0
POLYLINE
  5
40A
330
1F
100
AcDbEntity
  8
Ebene 4
 62
     7
370
     9
100
AcDb2dPolyline
 66
     1
 10
0.0
 20
0.0
 30
0.0
  0
VERTEX
  5
40B
330
40A
100
AcDbEntity
  8
Ebene 4
 62
     7
370
     9
100
AcDbVertex
100
AcDb2dVertex
 10
144.0502170634279
 20
45.31095924203952
 30
0.0
  0
VERTEX
  5
40C
330
40A
100
AcDbEntity
  8
Ebene 4
 62
     7
370
     9
100
AcDbVertex
100
AcDb2dVertex
 10
211.4194482301445
 20
45.31095924203952
 30
0.0
  0
SEQEND
  5
40D
330
40A
100
AcDbEntity
  8
Ebene 4
370
     9
  0
POLYLINE
  5
40E
330
1F
100
AcDbEntity
  8
Ebene 4
370
     0
100
AcDb2dPolyline
 66
     1
 10
0.0
 20
0.0
 30
0.0
  0
VERTEX
  5
40F
330
40E
100
AcDbEntity
  8
Ebene 4
370
     0
100
AcDbVertex
100
AcDb2dVertex
 10
205.2148271680555
 20
51.24858522788649
 30
0.0
  0
VERTEX
  5
410
330
40E
100
AcDbEntity
  8
Ebene 4
370
     0
100
AcDbVertex
100
AcDb2dVertex
 10
208.4580421974006
 20
50.38007608310434
 30
0.0
  0
VERTEX
  5
411
330
40E
100
AcDbEntity
  8
Ebene 4
370
     0
100
AcDbVertex
100
AcDb2dVertex
 10
205.2148271680555
 20
49.51053340899481
 30
0.0
  0
VERTEX
  5
412
330
40E
100
AcDbEntity
  8
Ebene 4
370
     0
100
AcDbVertex
100
AcDb2dVertex
 10
205.2148271680555
 20
51.24858522788649
 30
0.0
  0
VERTEX
  5
413
330
40E
100
AcDbEntity
  8
Ebene 4
370
     0
100
AcDbVertex
100
AcDb2dVertex
 10
205.2148271680555
 20
51.24858522788649
 30
0.0
  0
SEQEND
  5
414
330
40E
100
AcDbEntity
  8
Ebene 4
370
     0
  0
HATCH
  5
415
330
1F
100
AcDbEntity
  8
Ebene 4
 62
     7
100
AcDbHatch
 10
0.0
 20
0.0
 30
0.0
210
0.0
220
0.0
230
1.0
  2
SOLID
 70
     1
 71
     0
 91
        1
 92
        1
 93
        3
 72
     1
 10
205.2148271680555
 20
51.24858522788649
 11
208.4580421974006
 21
50.38007608310434
 72
     1
 10
208.4580421974006
 20
50.38007608310434
 11
205.2148271680555
 21
49.51053340899481
 72
     1
 10
205.2148271680555
 20
49.51053340899481
 11
205.2148271680555
 21
51.24858522788649
 97
        0
 75
     0
 76
     1
 98
        0
  0
POLYLINE
  5
416
330
1F
100
AcDbEntity
  8
Ebene 4
370
     0
100
AcDb2dPolyline
 66
     1
 10
0.0
 20
0.0
 30
0.0
  0
VERTEX
  5
417
330
416
100
AcDbEntity
  8
Ebene 4
370
     0
100
AcDbVertex
100
AcDb2dVertex
 10
150.2538045961895
 20
51.24858522788649
 30
0.0
  0
VERTEX
  5
418
330
416
100
AcDbEntity
  8
Ebene 4
370
     0
100
AcDbVertex
100
AcDb2dVertex
 10
147.0109340766201
 20
50.38007608310434
 30
0.0
  0
VERTEX
  5
419
330
416
100
AcDbEntity
  8
Ebene 4
370
     0
100
AcDbVertex
100
AcDb2dVertex
 10
150.2538045961895
 20
49.51053340899481
 30
0.0
  0
VERTEX
  5
41A
330
416
100
AcDbEntity
  8
Ebene 4
370
     0
100
AcDbVertex
100
AcDb2dVertex
 10
150.2538045961895
 20
51.24858522788649
 30
0.0
  0
VERTEX
  5
41B
330
416
100
AcDbEntity
  8
Ebene 4
370
     0
100
AcDbVertex
100
AcDb2dVertex
 10
150.2538045961895
 20
51.24858522788649
 30
0.0
  0
SEQEND
  5
41C
330
416
100
AcDbEntity
  8
Ebene 4
370
     0
  0
HATCH
  5
41D
330
1F
100
AcDbEntity
  8
Ebene 4
 62
     7
100
AcDbHatch
 10
0.0
 20
0.0
 30
0.0
210
0.0
220
0.0
230
1.0
  2
SOLID
 70
     1
 71
     0
 91
        1
 92
        1
 93
        3
 72
     1
 10
150.2538045961895
 20
51.24858522788649
 11
147.0109340766201
 21
50.38007608310434
 72
     1
 10
147.0109340766201
 20
50.38007608310434
 11
150.2538045961895
 21
49.51053340899481
 72
     1
 10
150.2538045961895
 20
49.51053340899481
 11
150.2538045961895
 21
51.24858522788649
 97
        0
 75
     0
 76
     1
 98
        0
  0
MTEXT
  5
41E
330
1F
100
AcDbEntity
  8
Ebene 4
 62
     7
100
AcDbMText
 10
174.5992769223774
 20
51.07219622267885
 30
0.0
 40
2.511734244163525
 41
0.0
 71
     7
 72
     1
  1
\fArial|b0|i0|c0|p34;\W1;166
 73
     1
 44
1.0
  0
POLYLINE
  5
41F
330
1F
100
AcDbEntity
  8
Ebene 4
370
     0
100
AcDb2dPolyline
 66
     1
 10
0.0
 20
0.0
 30
0.0
  0
VERTEX
  5
420
330
41F
100
AcDbEntity
  8
Ebene 4
370
     0
100
AcDbVertex
100
AcDb2dVertex
 10
147.293432092773
 20
46.17946838682165
 30
0.0
  0
VERTEX
  5
421
330
41F
100
AcDbEntity
  8
Ebene 4
370
     0
100
AcDbVertex
100
AcDb2dVertex
 10
144.0502170634279
 20
45.31095924203952
 30
0.0
  0
VERTEX
  5
422
330
41F
100
AcDbEntity
  8
Ebene 4
370
     0
100
AcDbVertex
100
AcDb2dVertex
 10
147.293432092773
 20
44.44176107770578
 30
0.0
  0
VERTEX
  5
423
330
41F
100
AcDbEntity
  8
Ebene 4
370
     0
100
AcDbVertex
100
AcDb2dVertex
 10
147.293432092773
 20
46.17946838682165
 30
0.0
  0
VERTEX
  5
424
330
41F
100
AcDbEntity
  8
Ebene 4
370
     0
100
AcDbVertex
100
AcDb2dVertex
 10
147.293432092773
 20
46.17946838682165
 30
0.0
  0
SEQEND
  5
425
330
41F
100
AcDbEntity
  8
Ebene 4
370
     0
  0
HATCH
  5
426
330
1F
100
AcDbEntity
  8
Ebene 4
 62
     7
100
AcDbHatch
 10
0.0
 20
0.0
 30
0.0
210
0.0
220
0.0
230
1.0
  2
SOLID
 70
     1
 71
     0
 91
        1
 92
        1
 93
        3
 72
     1
 10
147.293432092773
 20
46.17946838682165
 11
144.0502170634279
 21
45.31095924203952
 72
     1
 10
144.0502170634279
 20
45.31095924203952
 11
147.293432092773
 21
44.44176107770578
 72
     1
 10
147.293432092773
 20
44.44176107770578
 11
147.293432092773
 21
46.17946838682165
 97
        0
 75
     0
 76
     1
 98
        0
  0
POLYLINE
  5
427
330
1F
100
AcDbEntity
  8
Ebene 4
370
     0
100
AcDb2dPolyline
 66
     1
 10
0.0
 20
0.0
 30
0.0
  0
VERTEX
  5
428
330
427
100
AcDbEntity
  8
Ebene 4
370
     0
100
AcDbVertex
100
AcDb2dVertex
 10
208.1762332007993
 20
46.17946838682165
 30
0.0
  0
VERTEX
  5
429
330
427
100
AcDbEntity
  8
Ebene 4
370
     0
100
AcDbVertex
100
AcDb2dVertex
 10
211.4194482301445
 20
45.31095924203952
 30
0.0
  0
VERTEX
  5
42A
330
427
100
AcDbEntity
  8
Ebene 4
370
     0
100
AcDbVertex
100
AcDb2dVertex
 10
208.1762332007993
 20
44.44176107770578
 30
0.0
  0
VERTEX
  5
42B
330
427
100
AcDbEntity
  8
Ebene 4
370
     0
100
AcDbVertex
100
AcDb2dVertex
 10
208.1762332007993
 20
46.17946838682165
 30
0.0
  0
VERTEX
  5
42C
330
427
100
AcDbEntity
  8
Ebene 4
370
     0
100
AcDbVertex
100
AcDb2dVertex
 10
208.1762332007993
 20
46.17946838682165
 30
0.0
  0
SEQEND
  5
42D
330
427
100
AcDbEntity
  8
Ebene 4
370
     0
  0
HATCH
  5
42E
330
1F
100
AcDbEntity
  8
Ebene 4
 62
     7
100
AcDbHatch
 10
0.0
 20
0.0
 30
0.0
210
0.0
220
0.0
230
1.0
  2
SOLID
 70
     1
 71
     0
 91
        1
 92
        1
 93
        3
 72
     1
 10
208.1762332007993
 20
46.17946838682165
 11
211.4194482301445
 21
45.31095924203952
 72
     1
 10
211.4194482301445
 20
45.31095924203952
 11
208.1762332007993
 21
44.44176107770578
 72
     1
 10
208.1762332007993
 20
44.44176107770578
 11
208.1762332007993
 21
46.17946838682165
 97
        0
 75
     0
 76
     1
 98
        0
  0
MTEXT
  5
42F
330
1F
100
AcDbEntity
  8
Ebene 4
 62
     7
100
AcDbMText
 10
174.8927992513557
 20
45.88146743075797
 30
0.0
 40
2.511734244163525
 41
0.0
 71
     7
 72
     1
  1
\fArial|b0|i0|c0|p34;\W1;182
 73
     1
 44
1.0
  0
MTEXT
  5
430
330
1F
100
AcDbEntity
  8
Ebene 4
 62
     7
100
AcDbMText
 10
218.6613882271558
 20
71.24944477150886
 30
0.0
 40
2.511734244163525
 41
0.0
 71
     7
 72
     1
  1
\fArial|b0|i0|c0|p34;\W1;19
 11
-4.371139000186241E-8
 21
0.999999999999999
 31
0.0
 73
     1
 44
1.0
  0
POLYLINE
  5
431
330
1F
100
AcDbEntity
  8
Ebene 4
 62
     7
370
     9
100
AcDb2dPolyline
 66
     1
 10
0.0
 20
0.0
 30
0.0
  0
VERTEX
  5
432
330
431
100
AcDbEntity
  8
Ebene 4
 62
     7
370
     9
100
AcDbVertex
100
AcDb2dVertex
 10
209.9256538422923
 20
69.63266039369745
 30
0.0
  0
VERTEX
  5
433
330
431
100
AcDbEntity
  8
Ebene 4
 62
     7
370
     9
100
AcDbVertex
100
AcDb2dVertex
 10
218.2186931652577
 20
69.63266039369745
 30
0.0
  0
SEQEND
  5
434
330
431
100
AcDbEntity
  8
Ebene 4
370
     9
  0
POLYLINE
  5
435
330
1F
100
AcDbEntity
  8
Ebene 4
 62
     7
370
     9
100
AcDb2dPolyline
 66
     1
 10
0.0
 20
0.0
 30
0.0
  0
VERTEX
  5
436
330
435
100
AcDbEntity
  8
Ebene 4
 62
     7
370
     9
100
AcDbVertex
100
AcDb2dVertex
 10
218.2190376750335
 20
76.66548295680043
 30
0.0
  0
VERTEX
  5
437
330
435
100
AcDbEntity
  8
Ebene 4
 62
     7
370
     9
100
AcDbVertex
100
AcDb2dVertex
 10
209.9256538422923
 20
76.66548295680043
 30
0.0
  0
SEQEND
  5
438
330
435
100
AcDbEntity
  8
Ebene 4
370
     9
  0
MTEXT
  5
439
330
1F
100
AcDbEntity
  8
Ebene 4
 62
     7
100
AcDbMText
 10
216.9819030701494
 20
84.19164351884353
 30
0.0
 40
2.511734244163525
 41
0.0
 71
     7
 72
     1
  1
\fArial|b0|i0|c0|p34;\W1;49
 11
-4.371139000186241E-8
 21
0.999999999999999
 31
0.0
 73
     1
 44
1.0
  0
POLYLINE
  5
43A
330
1F
100
AcDbEntity
  8
Ebene 4
 62
     7
370
     9
100
AcDb2dPolyline
 66
     1
 10
0.0
 20
0.0
 30
0.0
  0
VERTEX
  5
43B
330
43A
100
AcDbEntity
  8
Ebene 4
 62
     7
370
     9
100
AcDbVertex
100
AcDb2dVertex
 10
205.7419271250236
 20
95.91427765985978
 30
0.0
  0
VERTEX
  5
43C
330
43A
100
AcDbEntity
  8
Ebene 4
 62
     7
370
     9
100
AcDbVertex
100
AcDb2dVertex
 10
218.963523300529
 20
95.91427765985978
 30
0.0
  0
SEQEND
  5
43D
330
43A
100
AcDbEntity
  8
Ebene 4
370
     9
  0
POLYLINE
  5
43E
330
1F
100
AcDbEntity
  8
Ebene 4
 62
     7
370
     9
100
AcDb2dPolyline
 66
     1
 10
0.0
 20
0.0
 30
0.0
  0
VERTEX
  5
43F
330
43E
100
AcDbEntity
  8
Ebene 4
 62
     7
370
     9
100
AcDbVertex
100
AcDb2dVertex
 10
187.7292334975209
 20
98.13567669419348
 30
0.0
  0
VERTEX
  5
440
330
43E
100
AcDbEntity
  8
Ebene 4
 62
     7
370
     9
100
AcDbVertex
100
AcDb2dVertex
 10
187.7292334975209
 20
104.9383667270646
 30
0.0
  0
SEQEND
  5
441
330
43E
100
AcDbEntity
  8
Ebene 4
370
     9
  0
POLYLINE
  5
442
330
1F
100
AcDbEntity
  8
Ebene 4
 62
     7
370
     9
100
AcDb2dPolyline
 66
     1
 10
0.0
 20
0.0
 30
0.0
  0
VERTEX
  5
443
330
442
100
AcDbEntity
  8
Ebene 4
 62
     7
370
     9
100
AcDbVertex
100
AcDb2dVertex
 10
217.5317406723201
 20
95.91427765985978
 30
0.0
  0
VERTEX
  5
444
330
442
100
AcDbEntity
  8
Ebene 4
 62
     7
370
     9
100
AcDbVertex
100
AcDb2dVertex
 10
217.5317406723201
 20
76.66548295680043
 30
0.0
  0
SEQEND
  5
445
330
442
100
AcDbEntity
  8
Ebene 4
370
     9
  0
POLYLINE
  5
446
330
1F
100
AcDbEntity
  8
Ebene 4
370
     0
100
AcDb2dPolyline
 66
     1
 10
0.0
 20
0.0
 30
0.0
  0
VERTEX
  5
447
330
446
100
AcDbEntity
  8
Ebene 4
370
     0
100
AcDbVertex
100
AcDb2dVertex
 10
216.6625425079864
 20
92.67106263051464
 30
0.0
  0
VERTEX
  5
448
330
446
100
AcDbEntity
  8
Ebene 4
370
     0
100
AcDbVertex
100
AcDb2dVertex
 10
217.5317406723201
 20
95.91427765985978
 30
0.0
  0
VERTEX
  5
449
330
446
100
AcDbEntity
  8
Ebene 4
370
     0
100
AcDbVertex
100
AcDb2dVertex
 10
218.4005943268781
 20
92.67106263051464
 30
0.0
  0
VERTEX
  5
44A
330
446
100
AcDbEntity
  8
Ebene 4
370
     0
100
AcDbVertex
100
AcDb2dVertex
 10
216.6625425079864
 20
92.67106263051464
 30
0.0
  0
VERTEX
  5
44B
330
446
100
AcDbEntity
  8
Ebene 4
370
     0
100
AcDbVertex
100
AcDb2dVertex
 10
216.6625425079864
 20
92.67106263051464
 30
0.0
  0
SEQEND
  5
44C
330
446
100
AcDbEntity
  8
Ebene 4
370
     0
  0
HATCH
  5
44D
330
1F
100
AcDbEntity
  8
Ebene 4
 62
     7
100
AcDbHatch
 10
0.0
 20
0.0
 30
0.0
210
0.0
220
0.0
230
1.0
  2
SOLID
 70
     1
 71
     0
 91
        1
 92
        1
 93
        3
 72
     1
 10
216.6625425079864
 20
92.67106263051464
 11
217.5317406723201
 21
95.91427765985978
 72
     1
 10
217.5317406723201
 20
95.91427765985978
 11
218.4005943268781
 21
92.67106263051464
 72
     1
 10
218.4005943268781
 20
92.67106263051464
 11
216.6625425079864
 21
92.67106263051464
 97
        0
 75
     0
 76
     1
 98
        0
  0
POLYLINE
  5
44E
330
1F
100
AcDbEntity
  8
Ebene 4
 62
     7
370
     9
100
AcDb2dPolyline
 66
     1
 10
0.0
 20
0.0
 30
0.0
  0
VERTEX
  5
44F
330
44E
100
AcDbEntity
  8
Ebene 4
 62
     7
370
     9
100
AcDbVertex
100
AcDb2dVertex
 10
217.5317406723201
 20
69.63266039369745
 30
0.0
  0
VERTEX
  5
450
330
44E
100
AcDbEntity
  8
Ebene 4
 62
     7
370
     9
100
AcDbVertex
100
AcDb2dVertex
 10
217.5317406723201
 20
62.59949332081866
 30
0.0
  0
SEQEND
  5
451
330
44E
100
AcDbEntity
  8
Ebene 4
370
     9
  0
POLYLINE
  5
452
330
1F
100
AcDbEntity
  8
Ebene 4
370
     0
100
AcDb2dPolyline
 66
     1
 10
0.0
 20
0.0
 30
0.0
  0
VERTEX
  5
453
330
452
100
AcDbEntity
  8
Ebene 4
370
     0
100
AcDbVertex
100
AcDb2dVertex
 10
216.6625425079864
 20
66.38944536435231
 30
0.0
  0
VERTEX
  5
454
330
452
100
AcDbEntity
  8
Ebene 4
370
     0
100
AcDbVertex
100
AcDb2dVertex
 10
217.5317406723201
 20
69.63266039369745
 30
0.0
  0
VERTEX
  5
455
330
452
100
AcDbEntity
  8
Ebene 4
370
     0
100
AcDbVertex
100
AcDb2dVertex
 10
218.4005943268781
 20
66.38944536435231
 30
0.0
  0
VERTEX
  5
456
330
452
100
AcDbEntity
  8
Ebene 4
370
     0
100
AcDbVertex
100
AcDb2dVertex
 10
216.6625425079864
 20
66.38944536435231
 30
0.0
  0
VERTEX
  5
457
330
452
100
AcDbEntity
  8
Ebene 4
370
     0
100
AcDbVertex
100
AcDb2dVertex
 10
216.6625425079864
 20
66.38944536435231
 30
0.0
  0
SEQEND
  5
458
330
452
100
AcDbEntity
  8
Ebene 4
370
     0
  0
HATCH
  5
459
330
1F
100
AcDbEntity
  8
Ebene 4
 62
     7
100
AcDbHatch
 10
0.0
 20
0.0
 30
0.0
210
0.0
220
0.0
230
1.0
  2
SOLID
 70
     1
 71
     0
 91
        1
 92
        1
 93
        3
 72
     1
 10
216.6625425079864
 20
66.38944536435231
 11
217.5317406723201
 21
69.63266039369745
 72
     1
 10
217.5317406723201
 20
69.63266039369745
 11
218.4005943268781
 21
66.38944536435231
 72
     1
 10
218.4005943268781
 20
66.38944536435231
 11
216.6625425079864
 21
66.38944536435231
 97
        0
 75
     0
 76
     1
 98
        0
  0
POLYLINE
  5
45A
330
1F
100
AcDbEntity
  8
Ebene 4
370
     0
100
AcDb2dPolyline
 66
     1
 10
0.0
 20
0.0
 30
0.0
  0
VERTEX
  5
45B
330
45A
100
AcDbEntity
  8
Ebene 4
370
     0
100
AcDbVertex
100
AcDb2dVertex
 10
216.6625425079864
 20
79.90904249592137
 30
0.0
  0
VERTEX
  5
45C
330
45A
100
AcDbEntity
  8
Ebene 4
370
     0
100
AcDbVertex
100
AcDb2dVertex
 10
217.5317406723201
 20
76.66548295680043
 30
0.0
  0
VERTEX
  5
45D
330
45A
100
AcDbEntity
  8
Ebene 4
370
     0
100
AcDbVertex
100
AcDb2dVertex
 10
218.4005943268781
 20
79.90904249592137
 30
0.0
  0
VERTEX
  5
45E
330
45A
100
AcDbEntity
  8
Ebene 4
370
     0
100
AcDbVertex
100
AcDb2dVertex
 10
216.6625425079864
 20
79.90904249592137
 30
0.0
  0
VERTEX
  5
45F
330
45A
100
AcDbEntity
  8
Ebene 4
370
     0
100
AcDbVertex
100
AcDb2dVertex
 10
216.6625425079864
 20
79.90904249592137
 30
0.0
  0
SEQEND
  5
460
330
45A
100
AcDbEntity
  8
Ebene 4
370
     0
  0
HATCH
  5
461
330
1F
100
AcDbEntity
  8
Ebene 4
 62
     7
100
AcDbHatch
 10
0.0
 20
0.0
 30
0.0
210
0.0
220
0.0
230
1.0
  2
SOLID
 70
     1
 71
     0
 91
        1
 92
        1
 93
        3
 72
     1
 10
216.6625425079864
 20
79.90904249592137
 11
217.5317406723201
 21
76.66548295680043
 72
     1
 10
217.5317406723201
 20
76.66548295680043
 11
218.4005943268781
 21
79.90904249592137
 72
     1
 10
218.4005943268781
 20
79.90904249592137
 11
216.6625425079864
 21
79.90904249592137
 97
        0
 75
     0
 76
     1
 98
        0
  0
POLYLINE
  5
462
330
1F
100
AcDbEntity
  8
Ebene 4
 62
     7
370
     9
100
AcDb2dPolyline
 66
     1
 10
0.0
 20
0.0
 30
0.0
  0
VERTEX
  5
463
330
462
100
AcDbEntity
  8
Ebene 4
 62
     7
370
     9
100
AcDbVertex
100
AcDb2dVertex
 10
204.3866256670415
 20
98.13567669419348
 30
0.0
  0
VERTEX
  5
464
330
462
100
AcDbEntity
  8
Ebene 4
 62
     7
370
     9
100
AcDbVertex
100
AcDb2dVertex
 10
204.3866256670415
 20
104.9383667270646
 30
0.0
  0
SEQEND
  5
465
330
462
100
AcDbEntity
  8
Ebene 4
370
     9
  0
POLYLINE
  5
466
330
1F
100
AcDbEntity
  8
Ebene 4
 62
     7
370
     9
100
AcDb2dPolyline
 66
     1
 10
0.0
 20
0.0
 30
0.0
  0
VERTEX
  5
467
330
466
100
AcDbEntity
  8
Ebene 4
 62
     7
370
     9
100
AcDbVertex
100
AcDb2dVertex
 10
147.0109340766201
 20
56.2560348190838
 30
0.0
  0
VERTEX
  5
468
330
466
100
AcDbEntity
  8
Ebene 4
 62
     7
370
     9
100
AcDbVertex
100
AcDb2dVertex
 10
177.7346603918983
 20
56.2560348190838
 30
0.0
  0
SEQEND
  5
469
330
466
100
AcDbEntity
  8
Ebene 4
370
     9
  0
POLYLINE
  5
46A
330
1F
100
AcDbEntity
  8
Ebene 4
370
     0
100
AcDb2dPolyline
 66
     1
 10
0.0
 20
0.0
 30
0.0
  0
VERTEX
  5
46B
330
46A
100
AcDbEntity
  8
Ebene 4
370
     0
100
AcDbVertex
100
AcDb2dVertex
 10
150.2538045961895
 20
57.12488847364174
 30
0.0
  0
VERTEX
  5
46C
330
46A
100
AcDbEntity
  8
Ebene 4
370
     0
100
AcDbVertex
100
AcDb2dVertex
 10
147.0109340766201
 20
56.2560348190838
 30
0.0
  0
VERTEX
  5
46D
330
46A
100
AcDbEntity
  8
Ebene 4
370
     0
100
AcDbVertex
100
AcDb2dVertex
 10
150.2538045961895
 20
55.38683665475006
 30
0.0
  0
VERTEX
  5
46E
330
46A
100
AcDbEntity
  8
Ebene 4
370
     0
100
AcDbVertex
100
AcDb2dVertex
 10
150.2538045961895
 20
57.12488847364174
 30
0.0
  0
VERTEX
  5
46F
330
46A
100
AcDbEntity
  8
Ebene 4
370
     0
100
AcDbVertex
100
AcDb2dVertex
 10
150.2538045961895
 20
57.12488847364174
 30
0.0
  0
SEQEND
  5
470
330
46A
100
AcDbEntity
  8
Ebene 4
370
     0
  0
HATCH
  5
471
330
1F
100
AcDbEntity
  8
Ebene 4
 62
     7
100
AcDbHatch
 10
0.0
 20
0.0
 30
0.0
210
0.0
220
0.0
230
1.0
  2
SOLID
 70
     1
 71
     0
 91
        1
 92
        1
 93
        3
 72
     1
 10
150.2538045961895
 20
57.12488847364174
 11
147.0109340766201
 21
56.2560348190838
 72
     1
 10
147.0109340766201
 20
56.2560348190838
 11
150.2538045961895
 21
55.38683665475006
 72
     1
 10
150.2538045961895
 20
55.38683665475006
 11
150.2538045961895
 21
57.12488847364174
 97
        0
 75
     0
 76
     1
 98
        0
  0
POLYLINE
  5
472
330
1F
100
AcDbEntity
  8
Ebene 4
 62
     7
370
     9
100
AcDb2dPolyline
 66
     1
 10
0.0
 20
0.0
 30
0.0
  0
VERTEX
  5
473
330
472
100
AcDbEntity
  8
Ebene 4
 62
     7
370
     9
100
AcDbVertex
100
AcDb2dVertex
 10
177.7346603918983
 20
60.04598686261745
 30
0.0
  0
VERTEX
  5
474
330
472
100
AcDbEntity
  8
Ebene 4
 62
     7
370
     9
100
AcDbVertex
100
AcDb2dVertex
 10
177.7346603918983
 20
55.28313921223542
 30
0.0
  0
SEQEND
  5
475
330
472
100
AcDbEntity
  8
Ebene 4
370
     9
  0
POLYLINE
  5
476
330
1F
100
AcDbEntity
  8
Ebene 4
370
     0
100
AcDb2dPolyline
 66
     1
 10
0.0
 20
0.0
 30
0.0
  0
VERTEX
  5
477
330
476
100
AcDbEntity
  8
Ebene 4
370
     0
100
AcDbVertex
100
AcDb2dVertex
 10
174.4911008527774
 20
57.12488847364174
 30
0.0
  0
VERTEX
  5
478
330
476
100
AcDbEntity
  8
Ebene 4
370
     0
100
AcDbVertex
100
AcDb2dVertex
 10
177.7346603918983
 20
56.2560348190838
 30
0.0
  0
VERTEX
  5
479
330
476
100
AcDbEntity
  8
Ebene 4
370
     0
100
AcDbVertex
100
AcDb2dVertex
 10
174.4911008527774
 20
55.38683665475006
 30
0.0
  0
VERTEX
  5
47A
330
476
100
AcDbEntity
  8
Ebene 4
370
     0
100
AcDbVertex
100
AcDb2dVertex
 10
174.4911008527774
 20
57.12488847364174
 30
0.0
  0
VERTEX
  5
47B
330
476
100
AcDbEntity
  8
Ebene 4
370
     0
100
AcDbVertex
100
AcDb2dVertex
 10
174.4911008527774
 20
57.12488847364174
 30
0.0
  0
SEQEND
  5
47C
330
476
100
AcDbEntity
  8
Ebene 4
370
     0
  0
HATCH
  5
47D
330
1F
100
AcDbEntity
  8
Ebene 4
 62
     7
100
AcDbHatch
 10
0.0
 20
0.0
 30
0.0
210
0.0
220
0.0
230
1.0
  2
SOLID
 70
     1
 71
     0
 91
        1
 92
        1
 93
        3
 72
     1
 10
174.4911008527774
 20
57.12488847364174
 11
177.7346603918983
 21
56.2560348190838
 72
     1
 10
177.7346603918983
 20
56.2560348190838
 11
174.4911008527774
 21
55.38683665475006
 72
     1
 10
174.4911008527774
 20
55.38683665475006
 11
174.4911008527774
 21
57.12488847364174
 97
        0
 75
     0
 76
     1
 98
        0
  0
MTEXT
  5
47E
330
1F
100
AcDbEntity
  8
Ebene 4
 62
     7
100
AcDbMText
 10
159.222772099267
 20
56.94884397820989
 30
0.0
 40
2.511734244163525
 41
0.0
 71
     7
 72
     1
  1
\fArial|b0|i0|c0|p34;\W1;83
 73
     1
 44
1.0
  0
POLYLINE
  5
47F
330
1F
100
AcDbEntity
  8
Ebene 4
 62
     7
370
     9
100
AcDb2dPolyline
 66
     1
 10
0.0
 20
0.0
 30
0.0
  0
VERTEX
  5
480
330
47F
100
AcDbEntity
  8
Ebene 4
 62
     7
370
     9
100
AcDbVertex
100
AcDb2dVertex
 10
187.7292334975209
 20
103.9589254344761
 30
0.0
  0
VERTEX
  5
481
330
47F
100
AcDbEntity
  8
Ebene 4
 62
     7
370
     9
100
AcDbVertex
100
AcDb2dVertex
 10
204.3866256670415
 20
103.9589254344761
 30
0.0
  0
SEQEND
  5
482
330
47F
100
AcDbEntity
  8
Ebene 4
370
     9
  0
POLYLINE
  5
483
330
1F
100
AcDbEntity
  8
Ebene 4
370
     0
100
AcDb2dPolyline
 66
     1
 10
0.0
 20
0.0
 30
0.0
  0
VERTEX
  5
484
330
483
100
AcDbEntity
  8
Ebene 4
370
     0
100
AcDbVertex
100
AcDb2dVertex
 10
190.9721040170903
 20
104.8274345792583
 30
0.0
  0
VERTEX
  5
485
330
483
100
AcDbEntity
  8
Ebene 4
370
     0
100
AcDbVertex
100
AcDb2dVertex
 10
187.7292334975209
 20
103.9589254344761
 30
0.0
  0
VERTEX
  5
486
330
483
100
AcDbEntity
  8
Ebene 4
370
     0
100
AcDbVertex
100
AcDb2dVertex
 10
190.9721040170903
 20
103.0897272701424
 30
0.0
  0
VERTEX
  5
487
330
483
100
AcDbEntity
  8
Ebene 4
370
     0
100
AcDbVertex
100
AcDb2dVertex
 10
190.9721040170903
 20
104.8274345792583
 30
0.0
  0
VERTEX
  5
488
330
483
100
AcDbEntity
  8
Ebene 4
370
     0
100
AcDbVertex
100
AcDb2dVertex
 10
190.9721040170903
 20
104.8274345792583
 30
0.0
  0
SEQEND
  5
489
330
483
100
AcDbEntity
  8
Ebene 4
370
     0
  0
HATCH
  5
48A
330
1F
100
AcDbEntity
  8
Ebene 4
 62
     7
100
AcDbHatch
 10
0.0
 20
0.0
 30
0.0
210
0.0
220
0.0
230
1.0
  2
SOLID
 70
     1
 71
     0
 91
        1
 92
        1
 93
        3
 72
     1
 10
190.9721040170903
 20
104.8274345792583
 11
187.7292334975209
 21
103.9589254344761
 72
     1
 10
187.7292334975209
 20
103.9589254344761
 11
190.9721040170903
 21
103.0897272701424
 72
     1
 10
190.9721040170903
 20
103.0897272701424
 11
190.9721040170903
 21
104.8274345792583
 97
        0
 75
     0
 76
     1
 98
        0
  0
POLYLINE
  5
48B
330
1F
100
AcDbEntity
  8
Ebene 4
370
     0
100
AcDb2dPolyline
 66
     1
 10
0.0
 20
0.0
 30
0.0
  0
VERTEX
  5
48C
330
48B
100
AcDbEntity
  8
Ebene 4
370
     0
100
AcDbVertex
100
AcDb2dVertex
 10
201.1434106376964
 20
104.8274345792583
 30
0.0
  0
VERTEX
  5
48D
330
48B
100
AcDbEntity
  8
Ebene 4
370
     0
100
AcDbVertex
100
AcDb2dVertex
 10
204.3866256670415
 20
103.9589254344761
 30
0.0
  0
VERTEX
  5
48E
330
48B
100
AcDbEntity
  8
Ebene 4
370
     0
100
AcDbVertex
100
AcDb2dVertex
 10
201.1434106376964
 20
103.0897272701424
 30
0.0
  0
VERTEX
  5
48F
330
48B
100
AcDbEntity
  8
Ebene 4
370
     0
100
AcDbVertex
100
AcDb2dVertex
 10
201.1434106376964
 20
104.8274345792583
 30
0.0
  0
VERTEX
  5
490
330
48B
100
AcDbEntity
  8
Ebene 4
370
     0
100
AcDbVertex
100
AcDb2dVertex
 10
201.1434106376964
 20
104.8274345792583
 30
0.0
  0
SEQEND
  5
491
330
48B
100
AcDbEntity
  8
Ebene 4
370
     0
  0
HATCH
  5
492
330
1F
100
AcDbEntity
  8
Ebene 4
 62
     7
100
AcDbHatch
 10
0.0
 20
0.0
 30
0.0
210
0.0
220
0.0
230
1.0
  2
SOLID
 70
     1
 71
     0
 91
        1
 92
        1
 93
        3
 72
     1
 10
201.1434106376964
 20
104.8274345792583
 11
204.3866256670415
 21
103.9589254344761
 72
     1
 10
204.3866256670415
 20
103.9589254344761
 11
201.1434106376964
 21
103.0897272701424
 72
     1
 10
201.1434106376964
 20
103.0897272701424
 11
201.1434106376964
 21
104.8274345792583
 97
        0
 75
     0
 76
     1
 98
        0
  0
MTEXT
  5
493
330
1F
100
AcDbEntity
  8
Ebene 4
 62
     7
100
AcDbMText
 10
193.9545251461577
 20
104.650356554499
 30
0.0
 40
2.511734244163525
 41
0.0
 71
     7
 72
     1
  1
\fArial|b0|i0|c0|p34;\W1;45
 73
     1
 44
1.0
  0
POLYLINE
  5
495
330
1F
100
AcDbEntity
  8
Ebene 6
  6
AI-Linetype-1
 62
     7
370
     9
100
AcDb2dPolyline
 66
     1
 10
0.0
 20
0.0
 30
0.0
  0
VERTEX
  5
496
330
495
100
AcDbEntity
  8
Ebene 6
  6
AI-Linetype-1
 62
     7
370
     9
100
AcDbVertex
100
AcDb2dVertex
 10
23.4340717143191
 20
101.0657323373399
 30
0.0
  0
VERTEX
  5
497
330
495
100
AcDbEntity
  8
Ebene 6
  6
AI-Linetype-1
 62
     7
370
     9
100
AcDbVertex
100
AcDb2dVertex
 10
23.4340717143191
 20
87.36664561258102
 30
0.0
  0
SEQEND
  5
498
330
495
100
AcDbEntity
  8
Ebene 6
  6
AI-Linetype-1
370
     9
  0
POLYLINE
  5
49A
330
1F
100
AcDbEntity
  8
Ebene 6
  6
AI-Linetype-2
 62
     7
370
     9
100
AcDb2dPolyline
 66
     1
 10
0.0
 20
0.0
 30
0.0
  0
VERTEX
  5
49B
330
49A
100
AcDbEntity
  8
Ebene 6
  6
AI-Linetype-2
 62
     7
370
     9
100
AcDbVertex
100
AcDb2dVertex
 10
177.7346603918983
 20
82.8639028429251
 30
0.0
  0
VERTEX
  5
49C
330
49A
100
AcDbEntity
  8
Ebene 6
  6
AI-Linetype-2
 62
     7
370
     9
100
AcDbVertex
100
AcDb2dVertex
 10
177.7346603918983
 20
60.04598686261745
 30
0.0
  0
SEQEND
  5
49D
330
49A
100
AcDbEntity
  8
Ebene 6
  6
AI-Linetype-2
370
     9
  0
POLYLINE
  5
49F
330
1F
100
AcDbEntity
  8
Ebene 6
  6
AI-Linetype-3
 62
     7
370
     9
100
AcDb2dPolyline
 66
     1
 10
0.0
 20
0.0
 30
0.0
  0
VERTEX
  5
4A0
330
49F
100
AcDbEntity
  8
Ebene 6
  6
AI-Linetype-3
 62
     7
370
     9
100
AcDbVertex
100
AcDb2dVertex
 10
88.01242918731094
 20
73.14872716547315
 30
0.0
  0
VERTEX
  5
4A1
330
49F
100
AcDbEntity
  8
Ebene 6
  6
AI-Linetype-3
 62
     7
370
     9
100
AcDbVertex
100
AcDb2dVertex
 10
108.0837409800836
 20
73.14872716547315
 30
0.0
  0
SEQEND
  5
4A2
330
49F
100
AcDbEntity
  8
Ebene 6
  6
AI-Linetype-3
370
     9
  0
POLYLINE
  5
4A4
330
1F
100
AcDbEntity
  8
Ebene 6
  6
AI-Linetype-4
 62
     7
370
     9
100
AcDb2dPolyline
 66
     1
 10
0.0
 20
0.0
 30
0.0
  0
VERTEX
  5
4A5
330
4A4
100
AcDbEntity
  8
Ebene 6
  6
AI-Linetype-4
 62
     7
370
     9
100
AcDbVertex
100
AcDb2dVertex
 10
102.4196557562188
 20
84.52409545248685
 30
0.0
  0
VERTEX
  5
4A6
330
4A4
100
AcDbEntity
  8
Ebene 6
  6
AI-Linetype-4
 62
     7
370
     9
100
AcDbVertex
100
AcDb2dVertex
 10
102.4196557562188
 20
61.78128260330276
 30
0.0
  0
SEQEND
  5
4A7
330
4A4
100
AcDbEntity
  8
Ebene 6
  6
AI-Linetype-4
370
     9
  0
POLYLINE
  5
4A9
330
1F
100
AcDbEntity
  8
Ebene 6
  6
AI-Linetype-5
 62
     7
370
     9
100
AcDb2dPolyline
 66
     1
 10
0.0
 20
0.0
 30
0.0
  0
VERTEX
  5
4AA
330
4A9
100
AcDbEntity
  8
Ebene 6
  6
AI-Linetype-5
 62
     7
370
     9
100
AcDbVertex
100
AcDb2dVertex
 10
104.4801687252557
 20
99.57745010590044
 30
0.0
  0
VERTEX
  5
4AB
330
4A9
100
AcDbEntity
  8
Ebene 6
  6
AI-Linetype-5
 62
     7
370
     9
100
AcDbVertex
100
AcDb2dVertex
 10
104.4801687252557
 20
91.9462140622395
 30
0.0
  0
SEQEND
  5
4AC
330
4A9
100
AcDbEntity
  8
Ebene 6
  6
AI-Linetype-5
370
     9
  0
POLYLINE
  5
4AE
330
1F
100
AcDbEntity
  8
Ebene 6
  6
AI-Linetype-6
 62
     7
370
     9
100
AcDb2dPolyline
 66
     1
 10
0.0
 20
0.0
 30
0.0
  0
VERTEX
  5
4AF
330
4AE
100
AcDbEntity
  8
Ebene 6
  6
AI-Linetype-6
 62
     7
370
     9
100
AcDbVertex
100
AcDb2dVertex
 10
147.0109340766201
 20
78.73977631686917
 30
0.0
  0
VERTEX
  5
4B0
330
4AE
100
AcDbEntity
  8
Ebene 6
  6
AI-Linetype-6
 62
     7
370
     9
100
AcDbVertex
100
AcDb2dVertex
 10
147.0109340766201
 20
67.47706272654081
 30
0.0
  0
SEQEND
  5
4B1
330
4AE
100
AcDbEntity
  8
Ebene 6
  6
AI-Linetype-6
370
     9
  0
POLYLINE
  5
4B3
330
1F
100
AcDbEntity
  8
Ebene 6
  6
AI-Linetype-7
 62
     7
370
     9
100
AcDb2dPolyline
 66
     1
 10
0.0
 20
0.0
 30
0.0
  0
VERTEX
  5
4B4
330
4B3
100
AcDbEntity
  8
Ebene 6
  6
AI-Linetype-7
 62
     7
370
     9
100
AcDbVertex
100
AcDb2dVertex
 10
208.4580421974006
 20
78.52721378520293
 30
0.0
  0
VERTEX
  5
4B5
330
4B3
100
AcDbEntity
  8
Ebene 6
  6
AI-Linetype-7
 62
     7
370
     9
100
AcDbVertex
100
AcDb2dVertex
 10
208.4580421974006
 20
67.26381117532299
 30
0.0
  0
SEQEND
  5
4B6
330
4B3
100
AcDbEntity
  8
Ebene 6
  6
AI-Linetype-7
370
     9
  0
POLYLINE
  5
4B8
330
1F
100
AcDbEntity
  8
Ebene 6
  6
AI-Linetype-8
 62
     7
370
     9
100
AcDb2dPolyline
 66
     1
 10
0.0
 20
0.0
 30
0.0
  0
VERTEX
  5
4B9
330
4B8
100
AcDbEntity
  8
Ebene 6
  6
AI-Linetype-8
 62
     7
370
     9
100
AcDbVertex
100
AcDb2dVertex
 10
209.9256538422923
 20
76.66548295680043
 30
0.0
  0
VERTEX
  5
4BA
330
4B8
100
AcDbEntity
  8
Ebene 6
  6
AI-Linetype-8
 62
     7
370
     9
100
AcDbVertex
100
AcDb2dVertex
 10
145.5178287083195
 20
76.66548295680043
 30
0.0
  0
SEQEND
  5
4BB
330
4B8
100
AcDbEntity
  8
Ebene 6
  6
AI-Linetype-8
370
     9
  0
POLYLINE
  5
4BD
330
1F
100
AcDbEntity
  8
Ebene 6
  6
AI-Linetype-9
 62
     7
370
     9
100
AcDb2dPolyline
 66
     1
 10
0.0
 20
0.0
 30
0.0
  0
VERTEX
  5
4BE
330
4BD
100
AcDbEntity
  8
Ebene 6
  6
AI-Linetype-9
 62
     7
370
     9
100
AcDbVertex
100
AcDb2dVertex
 10
209.9256538422923
 20
69.63266039369745
 30
0.0
  0
VERTEX
  5
4BF
330
4BD
100
AcDbEntity
  8
Ebene 6
  6
AI-Linetype-9
 62
     7
370
     9
100
AcDbVertex
100
AcDb2dVertex
 10
145.5178287083195
 20
69.63266039369745
 30
0.0
  0
SEQEND
  5
4C0
330
4BD
100
AcDbEntity
  8
Ebene 6
  6
AI-Linetype-9
370
     9
  0
POLYLINE
  5
4C2
330
1F
100
AcDbEntity
  8
Ebene 6
  6
AI-Linetype-10
 62
     7
370
     9
100
AcDb2dPolyline
 66
     1
 10
0.0
 20
0.0
 30
0.0
  0
VERTEX
  5
4C3
330
4C2
100
AcDbEntity
  8
Ebene 6
  6
AI-Linetype-10
 62
     7
370
     9
100
AcDbVertex
100
AcDb2dVertex
 10
193.2820420638036
 20
101.094326648731
 30
0.0
  0
VERTEX
  5
4C4
330
4C2
100
AcDbEntity
  8
Ebene 6
  6
AI-Linetype-10
 62
     7
370
     9
100
AcDbVertex
100
AcDb2dVertex
 10
193.2820420638036
 20
89.5374017098727
 30
0.0
  0
SEQEND
  5
4C5
330
4C2
100
AcDbEntity
  8
Ebene 6
  6
AI-Linetype-10
370
     9
  0
POLYLINE
  5
4C7
330
1F
100
AcDbEntity
  8
Ebene 6
  6
AI-Linetype-11
 62
     7
370
     9
100
AcDb2dPolyline
 66
     1
 10
0.0
 20
0.0
 30
0.0
  0
VERTEX
  5
4C8
330
4C7
100
AcDbEntity
  8
Ebene 6
  6
AI-Linetype-11
 62
     7
370
     9
100
AcDbVertex
100
AcDb2dVertex
 10
187.7292334975209
 20
98.13567669419348
 30
0.0
  0
VERTEX
  5
4C9
330
4C7
100
AcDbEntity
  8
Ebene 6
  6
AI-Linetype-11
 62
     7
370
     9
100
AcDbVertex
100
AcDb2dVertex
 10
187.7292334975209
 20
93.3576706136764
 30
0.0
  0
SEQEND
  5
4CA
330
4C7
100
AcDbEntity
  8
Ebene 6
  6
AI-Linetype-11
370
     9
  0
POLYLINE
  5
4CC
330
1F
100
AcDbEntity
  8
Ebene 6
  6
AI-Linetype-12
 62
     7
370
     9
100
AcDb2dPolyline
 66
     1
 10
0.0
 20
0.0
 30
0.0
  0
VERTEX
  5
4CD
330
4CC
100
AcDbEntity
  8
Ebene 6
  6
AI-Linetype-12
 62
     7
370
     9
100
AcDbVertex
100
AcDb2dVertex
 10
204.3866256670415
 20
98.13567669419348
 30
0.0
  0
VERTEX
  5
4CE
330
4CC
100
AcDbEntity
  8
Ebene 6
  6
AI-Linetype-12
 62
     7
370
     9
100
AcDbVertex
100
AcDb2dVertex
 10
204.3866256670415
 20
93.3576706136764
 30
0.0
  0
SEQEND
  5
4CF
330
4CC
100
AcDbEntity
  8
Ebene 6
  6
AI-Linetype-12
370
     9
  0
POLYLINE
  5
4D1
330
1F
100
AcDbEntity
  8
Ebene 6
  6
AI-Linetype-13
 62
     7
370
     9
100
AcDb2dPolyline
 66
     1
 10
0.0
 20
0.0
 30
0.0
  0
VERTEX
  5
4D2
330
4D1
100
AcDbEntity
  8
Ebene 6
  6
AI-Linetype-13
 62
     7
370
     9
100
AcDbVertex
100
AcDb2dVertex
 10
205.7419271250236
 20
95.91427765985978
 30
0.0
  0
VERTEX
  5
4D3
330
4D1
100
AcDbEntity
  8
Ebene 6
  6
AI-Linetype-13
 62
     7
370
     9
100
AcDbVertex
100
AcDb2dVertex
 10
185.7620826777248
 20
95.91427765985978
 30
0.0
  0
SEQEND
  5
4D4
330
4D1
100
AcDbEntity
  8
Ebene 6
  6
AI-Linetype-13
370
     9
  0
ENDSEC
  0
SECTION
  2
OBJECTS
  0
DICTIONARY
  5
C
330
0
100
AcDbDictionary
281
     1
  3
ACAD_GROUP
350
D
  3
ACAD_LAYOUT
350
1A
  3
ACAD_MLINESTYLE
350
17
  3
ACAD_PLOTSETTINGS
350
19
  3
ACAD_PLOTSTYLENAME
350
E
  3
ACAD_TABLESTYLE
350
4D6
  3
ACAD_VISUALSTYLE
350
2A
  0
DICTIONARY
  5
D
102
{ACAD_REACTORS
330
C
102
}
330
C
100
AcDbDictionary
281
     1
  0
DICTIONARY
  5
1A
102
{ACAD_REACTORS
330
C
102
}
330
C
100
AcDbDictionary
281
     1
  3
Layout1
350
1E
  3
Layout2
350
26
  3
Model
350
22
  0
DICTIONARY
  5
17
102
{ACAD_REACTORS
330
C
102
}
330
C
100
AcDbDictionary
281
     1
  3
Standard
350
18
  0
DICTIONARY
  5
19
102
{ACAD_REACTORS
330
C
102
}
330
C
100
AcDbDictionary
281
     1
  0
ACDBDICTIONARYWDFLT
  5
E
102
{ACAD_REACTORS
330
C
102
}
330
C
100
AcDbDictionary
281
     1
  3
Normal
350
F
100
AcDbDictionaryWithDefault
340
F
  0
DICTIONARY
  5
4D6
102
{ACAD_REACTORS
330
C
102
}
330
C
100
AcDbDictionary
281
     1
  0
DICTIONARY
  5
2A
102
{ACAD_REACTORS
330
C
102
}
330
C
100
AcDbDictionary
281
     1
  3
2dWireframe
350
2F
  3
3D Hidden
350
31
  3
3dWireframe
350
30
  3
Basic
350
32
  3
Brighten
350
36
  3
ColorChange
350
3A
  3
Conceptual
350
34
  3
Dim
350
35
  3
Facepattern
350
39
  3
Flat
350
2B
  3
FlatWithEdges
350
2C
  3
Gouraud
350
2D
  3
GouraudWithEdges
350
2E
  3
Linepattern
350
38
  3
Realistic
350
33
  3
Thicken
350
37
  0
LAYOUT
  5
1E
102
{ACAD_REACTORS
330
1A
102
}
330
1A
100
AcDbPlotSettings
  1

  2
none_device
  4

  6

 40
0.0
 41
0.0
 42
0.0
 43
0.0
 44
0.0
 45
0.0
 46
0.0
 47
0.0
 48
0.0
 49
0.0
140
0.0
141
0.0
142
1.0
143
1.0
 70
   688
 72
     0
 73
     0
 74
     5
  7

 75
    16
147
1.0
148
0.0
149
0.0
100
AcDbLayout
  1
Layout1
 70
     1
 71
     1
 10
0.0
 20
0.0
 11
12.0
 21
9.0
 12
0.0
 22
0.0
 32
0.0
 14
1.000000000000000E+20
 24
1.000000000000000E+20
 34
1.000000000000000E+20
 15
-1.000000000000000E+20
 25
-1.000000000000000E+20
 35
-1.000000000000000E+20
146
0.0
 13
0.0
 23
0.0
 33
0.0
 16
1.0
 26
0.0
 36
0.0
 17
0.0
 27
1.0
 37
0.0
 76
     0
330
1B
  0
LAYOUT
  5
26
102
{ACAD_REACTORS
330
1A
102
}
330
1A
100
AcDbPlotSettings
  1

  2
none_device
  4

  6

 40
0.0
 41
0.0
 42
0.0
 43
0.0
 44
0.0
 45
0.0
 46
0.0
 47
0.0
 48
0.0
 49
0.0
140
0.0
141
0.0
142
1.0
143
1.0
 70
   688
 72
     0
 73
     0
 74
     5
  7

 75
    16
147
1.0
148
0.0
149
0.0
100
AcDbLayout
  1
Layout2
 70
     1
 71
     2
 10
0.0
 20
0.0
 11
0.0
 21
0.0
 12
0.0
 22
0.0
 32
0.0
 14
0.0
 24
0.0
 34
0.0
 15
0.0
 25
0.0
 35
0.0
146
0.0
 13
0.0
 23
0.0
 33
0.0
 16
1.0
 26
0.0
 36
0.0
 17
0.0
 27
1.0
 37
0.0
 76
     0
330
23
  0
LAYOUT
  5
22
102
{ACAD_REACTORS
330
1A
102
}
330
1A
100
AcDbPlotSettings
  1

  2
none_device
  4

  6

 40
0.0
 41
0.0
 42
0.0
 43
0.0
 44
0.0
 45
0.0
 46
0.0
 47
0.0
 48
0.0
 49
0.0
140
0.0
141
0.0
142
1.0
143
1.0
 70
  1712
 72
     0
 73
     0
 74
     0
  7

 75
     0
147
1.0
148
0.0
149
0.0
100
AcDbLayout
  1
Model
 70
     1
 71
     0
 10
0.0
 20
0.0
 11
12.0
 21
9.0
 12
0.0
 22
0.0
 32
0.0
 14
1.000000000000000E+20
 24
1.000000000000000E+20
 34
1.000000000000000E+20
 15
-1.000000000000000E+20
 25
-1.000000000000000E+20
 35
-1.000000000000000E+20
146
0.0
 13
0.0
 23
0.0
 33
0.0
 16
1.0
 26
0.0
 36
0.0
 17
0.0
 27
1.0
 37
0.0
 76
     0
330
1F
331
29
  0
MLINESTYLE
  5
18
102
{ACAD_REACTORS
330
17
102
}
330
17
100
AcDbMlineStyle
  2
Standard
 70
     0
  3

 62
   256
 51
90.0
 52
90.0
 71
     2
 49
0.5
 62
   256
  6
BYLAYER
 49
-0.5
 62
   256
  6
BYLAYER
  0
ACDBPLACEHOLDER
  5
F
102
{ACAD_REACTORS
330
E
102
}
330
E
  0
VISUALSTYLE
  5
2F
102
{ACAD_REACTORS
330
2A
102
}
330
2A
100
AcDbVisualStyle
  2
2dWireframe
 70
     4
 71
     0
 72
     2
 73
     0
 90
        0
 40
-0.6
 41
-30.0
 62
     5
 63
     7
 74
     1
 91
        4
 64
     7
 65
   257
 75
     1
175
     1
 42
1.0
 92
        0
 66
   257
 43
1.0
 76
     1
 77
     6
 78
     2
 67
     7
 79
     5
170
     0
171
     0
290
     0
174
     0
 93
        1
 44
0.0
173
     0
291
     0
 45
0.0
1001
ACAD
1000
AcDbSavedByObjectVersion
1070
     0
  0
VISUALSTYLE
  5
31
102
{ACAD_REACTORS
330
2A
102
}
330
2A
100
AcDbVisualStyle
  2
3D Hidden
 70
     6
 71
     1
 72
     2
 73
     2
 90
        0
 40
-0.6
 41
-30.0
 62
     5
 63
     7
 74
     2
 91
        2
 64
     7
 65
   257
 75
     2
175
     1
 42
40.0
 92
        0
 66
   257
 43
1.0
 76
     1
 77
     6
 78
     2
 67
     7
 79
     3
170
     0
171
     0
290
     0
174
     0
 93
        1
 44
0.0
173
     0
291
     0
 45
0.0
1001
ACAD
1000
AcDbSavedByObjectVersion
1070
     0
  0
VISUALSTYLE
  5
30
102
{ACAD_REACTORS
330
2A
102
}
330
2A
100
AcDbVisualStyle
  2
3dWireframe
 70
     5
 71
     0
 72
     2
 73
     0
 90
        0
 40
-0.6
 41
-30.0
 62
     5
 63
     7
 74
     1
 91
        4
 64
     7
 65
   257
 75
     1
175
     1
 42
1.0
 92
        0
 66
   257
 43
1.0
 76
     1
 77
     6
 78
     2
 67
     7
 79
     5
170
     0
171
     0
290
     0
174
     0
 93
        1
 44
0.0
173
     0
291
     0
 45
0.0
1001
ACAD
1000
AcDbSavedByObjectVersion
1070
     0
  0
VISUALSTYLE
  5
32
102
{ACAD_REACTORS
330
2A
102
}
330
2A
100
AcDbVisualStyle
  2
Basic
 70
     7
 71
     1
 72
     0
 73
     1
 90
        0
 40
-0.6
 41
-30.0
 62
     5
 63
     7
 74
     0
 91
        4
 64
     7
 65
   257
 75
     1
175
     1
 42
1.0
 92
        8
 66
     7
 43
1.0
 76
     1
 77
     6
 78
     2
 67
     7
 79
     5
170
     0
171
     0
290
     0
174
     0
 93
        1
 44
0.0
173
     0
291
     1
 45
0.0
1001
ACAD
1000
AcDbSavedByObjectVersion
1070
     0
  0
VISUALSTYLE
  5
36
102
{ACAD_REACTORS
330
2A
102
}
330
2A
100
AcDbVisualStyle
  2
Brighten
 70
    12
 71
     2
 72
     2
 73
     0
 90
        0
 40
-0.6
 41
-30.0
 62
     5
 63
     7
 74
     1
 91
        4
 64
     7
 65
   257
 75
     1
175
     1
 42
1.0
 92
        8
 66
     7
 43
1.0
 76
     1
 77
     6
 78
     2
 67
     7
 79
     5
170
     0
171
     0
290
     0
174
     0
 93
        1
 44
50.0
173
     0
291
     1
 45
0.0
1001
ACAD
1000
AcDbSavedByObjectVersion
1070
     0
  0
VISUALSTYLE
  5
3A
102
{ACAD_REACTORS
330
2A
102
}
330
2A
100
AcDbVisualStyle
  2
ColorChange
 70
    16
 71
     2
 72
     2
 73
     3
 90
        0
 40
-0.6
 41
-30.0
 62
     5
 63
     8
 74
     1
 91
        4
 64
     7
 65
   257
 75
     1
175
     1
 42
1.0
 92
        8
 66
     8
 43
1.0
 76
     1
 77
     6
 78
     2
 67
     7
 79
     5
170
     0
171
     0
290
     0
174
     0
 93
        1
 44
0.0
173
     0
291
     1
 45
0.0
1001
ACAD
1000
AcDbSavedByObjectVersion
1070
     0
  0
VISUALSTYLE
  5
34
102
{ACAD_REACTORS
330
2A
102
}
330
2A
100
AcDbVisualStyle
  2
Conceptual
 70
     9
 71
     3
 72
     2
 73
     0
 90
        0
 40
-0.6
 41
-30.0
 62
     5
 63
     7
 74
     2
 91
        2
 64
     7
 65
   257
 75
     1
175
     1
 42
40.0
 92
        8
 66
     7
 43
1.0
 76
     1
 77
     6
 78
     2
 67
     7
 79
     3
170
     0
171
     0
290
     0
174
     0
 93
        1
 44
0.0
173
     0
291
     0
 45
0.0
1001
ACAD
1000
AcDbSavedByObjectVersion
1070
     0
  0
VISUALSTYLE
  5
35
102
{ACAD_REACTORS
330
2A
102
}
330
2A
100
AcDbVisualStyle
  2
Dim
 70
    11
 71
     2
 72
     2
 73
     0
 90
        0
 40
-0.6
 41
-30.0
 62
     5
 63
     7
 74
     1
 91
        4
 64
     7
 65
   257
 75
     1
175
     1
 42
1.0
 92
        8
 66
     7
 43
1.0
 76
     1
 77
     6
 78
     2
 67
     7
 79
     5
170
     0
171
     0
290
     0
174
     0
 93
        1
 44
-50.0
173
     0
291
     1
 45
0.0
1001
ACAD
1000
AcDbSavedByObjectVersion
1070
     0
  0
VISUALSTYLE
  5
39
102
{ACAD_REACTORS
330
2A
102
}
330
2A
100
AcDbVisualStyle
  2
Facepattern
 70
    15
 71
     2
 72
     2
 73
     0
 90
        0
 40
-0.6
 41
-30.0
 62
     5
 63
     7
 74
     1
 91
        4
 64
     7
 65
   257
 75
     1
175
     1
 42
1.0
 92
        8
 66
     7
 43
1.0
 76
     1
 77
     6
 78
     2
 67
     7
 79
     5
170
     0
171
     0
290
     0
174
     0
 93
        1
 44
0.0
173
     0
291
     1
 45
0.0
1001
ACAD
1000
AcDbSavedByObjectVersion
1070
     0
  0
VISUALSTYLE
  5
2B
102
{ACAD_REACTORS
330
2A
102
}
330
2A
100
AcDbVisualStyle
  2
Flat
 70
     0
 71
     2
 72
     1
 73
     1
 90
        2
 40
-0.6
 41
30.0
 62
     5
 63
     7
 74
     0
 91
        4
 64
     7
 65
   257
 75
     1
175
     1
 42
1.0
 92
        8
 66
     7
 43
1.0
 76
     1
 77
     6
 78
     2
 67
     7
 79
     5
170
     0
171
     0
290
     0
174
     0
 93
       13
 44
0.0
173
     0
291
     1
 45
0.0
1001
ACAD
1000
AcDbSavedByObjectVersion
1070
     0
  0
VISUALSTYLE
  5
2C
102
{ACAD_REACTORS
330
2A
102
}
330
2A
100
AcDbVisualStyle
  2
FlatWithEdges
 70
     1
 71
     2
 72
     1
 73
     1
 90
        2
 40
-0.6
 41
30.0
 62
     5
 63
     7
 74
     1
 91
        4
 64
     7
 65
   257
 75
     1
175
     1
 42
1.0
 92
        0
 66
   257
 43
1.0
 76
     1
 77
     6
 78
     2
 67
     7
 79
     5
170
     0
171
     0
290
     0
174
     0
 93
       13
 44
0.0
173
     0
291
     1
 45
0.0
1001
ACAD
1000
AcDbSavedByObjectVersion
1070
     0
  0
VISUALSTYLE
  5
2D
102
{ACAD_REACTORS
330
2A
102
}
330
2A
100
AcDbVisualStyle
  2
Gouraud
 70
     2
 71
     2
 72
     2
 73
     1
 90
        2
 40
-0.6
 41
30.0
 62
     5
 63
     7
 74
     0
 91
        4
 64
     7
 65
   257
 75
     1
175
     1
 42
1.0
 92
        0
 66
     7
 43
1.0
 76
     1
 77
     6
 78
     2
 67
     7
 79
     5
170
     0
171
     0
290
     0
174
     0
 93
       13
 44
0.0
173
     0
291
     1
 45
0.0
1001
ACAD
1000
AcDbSavedByObjectVersion
1070
     0
  0
VISUALSTYLE
  5
2E
102
{ACAD_REACTORS
330
2A
102
}
330
2A
100
AcDbVisualStyle
  2
GouraudWithEdges
 70
     3
 71
     2
 72
     2
 73
     1
 90
        2
 40
-0.6
 41
30.0
 62
     5
 63
     7
 74
     1
 91
        4
 64
     7
 65
   257
 75
     1
175
     1
 42
1.0
 92
        0
 66
   257
 43
1.0
 76
     1
 77
     6
 78
     2
 67
     7
 79
     5
170
     0
171
     0
290
     0
174
     0
 93
       13
 44
0.0
173
     0
291
     1
 45
0.0
1001
ACAD
1000
AcDbSavedByObjectVersion
1070
     0
  0
VISUALSTYLE
  5
38
102
{ACAD_REACTORS
330
2A
102
}
330
2A
100
AcDbVisualStyle
  2
Linepattern
 70
    14
 71
     2
 72
     2
 73
     0
 90
        0
 40
-0.6
 41
-30.0
 62
     5
 63
     7
 74
     1
 91
        4
 64
     7
 65
   257
 75
     7
175
     7
 42
1.0
 92
        8
 66
     7
 43
1.0
 76
     1
 77
     6
 78
     2
 67
     7
 79
     5
170
     0
171
     0
290
     0
174
     0
 93
        1
 44
0.0
173
     0
291
     1
 45
0.0
1001
ACAD
1000
AcDbSavedByObjectVersion
1070
     0
  0
VISUALSTYLE
  5
33
102
{ACAD_REACTORS
330
2A
102
}
330
2A
100
AcDbVisualStyle
  2
Realistic
 70
     8
 71
     2
 72
     2
 73
     0
 90
        0
 40
-0.6
 41
-30.0
 62
     5
 63
     7
 74
     1
 91
        0
 64
     7
 65
   257
 75
     1
175
     1
 42
1.0
 92
        8
 66
     8
 43
1.0
 76
     1
 77
     6
 78
     2
 67
     7
 79
     5
170
     0
171
     0
290
     0
174
     0
 93
       13
 44
0.0
173
     0
291
     0
 45
0.0
1001
ACAD
1000
AcDbSavedByObjectVersion
1070
     0
  0
VISUALSTYLE
  5
37
102
{ACAD_REACTORS
330
2A
102
}
330
2A
100
AcDbVisualStyle
  2
Thicken
 70
    13
 71
     2
 72
     2
 73
     0
 90
        0
 40
-0.6
 41
-30.0
 62
     5
 63
     7
 74
     1
 91
        4
 64
     7
 65
   257
 75
     1
175
     1
 42
1.0
 92
       12
 66
     7
 43
1.0
 76
     1
 77
     6
 78
     2
 67
     7
 79
     5
170
     0
171
     0
290
     0
174
     0
 93
        1
 44
0.0
173
     0
291
     1
 45
0.0
1001
ACAD
1000
AcDbSavedByObjectVersion
1070
     0
  0
ENDSEC
  0
EOF
